Cifra Club

I Want To Be Loved

Bon Jovi

Tab de baixo: Principal
Album:Have A Nice Day
Bassist:Hugh McDonald
Tabber:Dev Fuld

This is a fun song to play. Got a cool sound, and if you listen you can hear the 
talk box. It's cool.

Key:
x = times a number

Intro/Verse
G:-----------------------|
D:-----------------------|
A:1-1--1-1--1------------|
E:------------1-1--1-1--1|

Chorus 1
G:-----------------------------|
D:----3x8-------------3x8------|
A:5x8-----3x8-----5x8-----3x8--|
E:------------3x8-------------3|

Chorus 2
G:-----------------------------------------------|
D:----3x8-------------3x8-------------3x8--------|
A:5x8-----3x8-----5x8-----3x8-----5x8-----3x8----|
E:------------3x8-------------3x8-------------3x8|

Soloish thing
G:--------------------|-------------------|-------------------|-------|
D:--------------------|-------------------|-------------------|-------|
A:----111-----3333-5-3|----111------------|----111----3333-5-3|1x8-3x8|
E:555-----1-----------|555-----1--3333-5-3|555-----1----------|-------|

Last chorus
G:-----------------------------------------------|
D:-----------------------------------------------|
A:1x8-----3x8-----1x8-----3x8-----1x8-----3x8----|
E:----1x8-----3x8-----1x8-----3x8-----1x8-----3x8|

That's it. Cool song. This tab is deffinatley correct. All you gotta do is 
put in order and play it. Any comments or questions, e-mail me at *
exibições 3.735

0 comentários

mostrar mais comentários

Conseguiu tocar?

0 tocaram 0 ainda não

Grave um vídeo tocando I Want To Be Loved e mande pra gente!

00:00 / 00:00
outros vídeos desta música
repetir qualidade Automático
Outros vídeos desta música
00:00 / 00:00
Automático
OK