Cifra Club

It's My Life

Bon Jovi

Tab de baixo: Principal
Intro:

G|---------------------------------------------------
D|---------------------------------------------------
A|---------------------------------------------------
E|---------------------------------------------------
B|-1-1-3-4-3-1-1-1-----------------------------------


Primeira parte:

G|---------------------------------------------------
D|-----------------------1---------------------------
A|-------1-3---------1-----3------------------------- (3x)
E|-----3---------------3-----------------------------
B|-1-1-------1-1-1-1---------------------------------

This ain't a song for the broken-hearted
No silent prayer for faith-departed

Segunda parte:

G|---------------------------------------------------
D|---------------------------------------------------
A|--------------------------------------------------- (2x)
E|---------------------------------------------------
B|-1-1-1-1-1-1-1-1-1-1-1-1-1-1-1-1-------------------

G|---------------------------------------------------
D|---------------------------------------------------
A|---------------------------------------------------
E|---------------------------------------------------
B|-1-1-----------------------------------------------

(...)
I ain't gonna be just a face in the crowd
You're gonna hear my voice
When I shout it out loud


Refrão:

G|---------------------------------------------------
D|---------------------------------------------------
A|-3-3-3-3-3-3-----------------3---6-6-6-6-6-3-6/8-6-
E|-------------1-3-4-4-4-4-4-4---6-------------------
B|---------------------------------------------------

G|---------------------------------------------------
D|--------------------------------5-6-6-6-6-6--------
A|-5-5-5-5-5-6-5-6-3-3-3-3-3-3-/6-------------6---8--
E|----------------------------------------------8----
B|---------------------------------------------------

G|---------------------------------------------------
D|---------------------------------------------------
A|---------------------------------------------------
E|-6-6-6-6-6-6-6-6-6-6-6-6-7-7-7-7-------------------
B|---------------------------------------------------

G|---------------------------------------------------
D|---------------------------------------------------
A|-----------------------------3---6-6-6-6-6-3-6/8-6-
E|-------------1-3-4-4-4-4-4-4---6-------------------
B|-1-1-1-1-1-1-------------------------------------

G|---------------------------------------------------
D|--------------------------------5-6-6-6-6-6--------
A|-5-5-5-5-5-6-5-6-3-3-3-3-3-3-/6-------------6---8--
E|----------------------------------------------8----
B|---------------------------------------------------

G|---------------------------------------------------
D|---------------------------------------------------
A|---------------------------------------------------
E|-6-6-6-6-6-6-6-6-6-6-6-6-7-7-7-7-------------------
B|---------------------------------------------------

(...)
It's my life
It's now or never
I ain't gonna live forever
I just want to live while I'm alive
(It's my life)
My heart is like an open highway
Like Frankie said
I did it my way
I just wanna live while I'm alive
It's my life


Interlúdio:

G|---------------------------------------------------
D|---------------------------------------------------
A|---------------------------------------------------
E|---------------------------------------------------
B|-1-1-1-1-1-----------------------------------------


Terceira parte:

G|---------------------------------------------------
D|-----------------------1---------------------------
A|-------1-3---------1-----3------------------------- (3x)
E|-----3---------------3-----------------------------
B|-1-1-------1-1-1-1---------------------------------

(...)
This is for the ones who stood their ground
For Tommy and Gina who never backed down

Quarta parte:

G|---------------------------------------------------
D|---------------------------------------------------
A|---------------------------------------------------
E|---------------------------------------------------
B|-1-1-1-1-1-1-1-1-1-1-1-1-1-1-1-1-------------------

G|---------------------------------------------------
D|---------------------------------------------------
A|---------------------------------------------------
E|-1-1-1-1-1-1-1-1-1-1-1-1-1-1-1-1-1-1---------------
B|---------------------------------------------------

(...)
Tomorrow's getting hard make no mistake
Luck ain't even lucky
Got to make your owns breaks


Refrão:

G|---------------------------------------------------
D|---------------------------------------------------
A|-3-3-3-3-3-3-----------------3---6-6-6-6-6-3-6/8-6-
E|-------------1-3-4-4-4-4-4-4---6-------------------
B|---------------------------------------------------

G|---------------------------------------------------
D|--------------------------------5-6-6-6-6-6--------
A|-5-5-5-5-5-6-5-6-3-3-3-3-3-3-/6-------------6---8--
E|----------------------------------------------8----
B|---------------------------------------------------

G|---------------------------------------------------
D|---------------------------------------------------
A|---------------------------------------------------
E|-6-6-6-6-6-6-6-6-6-6-6-6-7-7-7-7-------------------
B|---------------------------------------------------

G|---------------------------------------------------
D|---------------------------------------------------
A|-----------------------------3---6-6-6-6-6-3-6/8-6-
E|-------------1-3-4-4-4-4-4-4---6-------------------
B|-1-1-1-1-1-1-------------------------------------

G|---------------------------------------------------
D|--------------------------------5-6-6-6-6-6--------
A|-5-5-5-5-5-6-5-6-3-3-3-3-3-3-/6-------------6---8--
E|----------------------------------------------8----
B|---------------------------------------------------

G|---------------------------------------------------
D|---------------------------------------------------
A|---------------------------------------------------
E|-6-6-6-6-6-6-6-6-6-6-6-6-7-7-7-7-------------------
B|---------------------------------------------------

(...)
It's my life
It's now or never
I ain't gonna live forever
I just want to live while I'm alive
(It's my life)
My heart is like an open highway
Like Frankie said
I did it my way
I just wanna live while I'm alive
It's my life


Solo de guitarra:

G|---------------------------------------------------
D|---------------------------------------------------
A|---------------------------------------------------
E|-4-4-4-4-4-4-4-4-4-4-4-4-4-4-4-4-6-6-6-6-6-6-6-6---
B|---------------------------------------------------

G|---------------------------------------------------
D|---------------------------------------------------
A|-----------------3-3-3-3-3-3-3-3-3-3-3-3-3-3-3-3---
E|-6-6-6-6-6-6-6-6-----------------------------------
B|---------------------------------------------------

G|---------------------------------------------------
D|---------------------------------------------------
A|---------------------------------------------------
E|-1-1-1-1-1-1-1-1-1-1-1-1-1-1-1---------------------
B|-------------------------------1-------------------


Quinta parte:

G|---------------------------------------------------
D|---------------------------------------------------
A|-3-------------------------------------------------
E|---------------------------------------------------
B|---1-1---------------------------------------------

(...)
Better stand tall when they're calling you out
Don't bend, don't break, baby, don't back down


Refrão 4x:

G|---------------------------------------------------
D|---------------------------------------------------
A|-3-3-3-3-3-3-----------------3---6-6-6-6-6-3-6/8-6-
E|-------------1-3-4-4-4-4-4-4---6-------------------
B|---------------------------------------------------

G|---------------------------------------------------
D|--------------------------------5-6-6-6-6-6--------
A|-5-5-5-5-5-6-5-6-3-3-3-3-3-3-/6-------------6---8--
E|----------------------------------------------8----
B|---------------------------------------------------

G|---------------------------------------------------
D|---------------------------------------------------
A|---------------------------------------------------
E|-6-6-6-6-6-6-6-6-6-6-6-6-7-7-7-7-------------------
B|---------------------------------------------------

G|---------------------------------------------------
D|---------------------------------------------------
A|-----------------------------3---6-6-6-6-6-3-6/8-6-
E|-------------1-3-4-4-4-4-4-4---6-------------------
B|-1-1-1-1-1-1-------------------------------------

G|---------------------------------------------------
D|--------------------------------5-6-6-6-6-6--------
A|-5-5-5-5-5-6-5-6-3-3-3-3-3-3-/6-------------6---8--
E|----------------------------------------------8----
B|---------------------------------------------------

1ª, 2ª e 3ª vez:

G|---------------------------------------------------
D|---------------------------------------------------
A|---------------------------------------------------
E|-6-6-6-6-6-6-6-6-6-6-6-6-7-7-7-7-------------------
B|---------------------------------------------------

4ª vez:

G|---------------------------------------------------
D|---------------------------------------------------
A|---------------------------------------------------
E|-6-6-6-6-6-6-6-6-6-6-6-6-7-7-7---------------------
B|---------------------------------------------------

(...)
It's my life
It's now or never
I ain't gonna live forever
I just want to live while I'm alive
(It's my life)
My heart is like an open highway
Like Frankie said
I did it my way
I just wanna live while I'm alive
It's my life

It's now or never
I ain't gonna live forever
I just want to live while I'm alive
(It's my life)
My heart is like an open highway
Like Frankie said
I did it my way
I just wanna live while I'm alive
It's my life
exibições 52.412
Composição: Jon Bon Jovi / Max Martin / Richie Sambora Colaboração e revisão:
  • Filipe Marks
  • Ricardo Dias
  • Leo GS

0 comentários

mostrar mais comentários

Conseguiu tocar?

9 tocaram 0 ainda não

Grave um vídeo tocando It's My Life e mande pra gente!

00:00 / 00:00
outros vídeos desta música
repetir qualidade Automático
Outros vídeos desta música
00:00 / 00:00
Automático
Capítulos
  • Início
  • Tocando a música
  • Tocando Introdução
  • Ensinando Introdução
  • Tocando Primeira Parte
  • Ensinando Primeira Parte
  • Tocando Segunda Parte
  • Ensinando Segunda Parte
  • Ensinando Quarta Parte
  • Ensinando Quinta Parte
  • Tocando Refrão
  • Ensinando Refrão
  • Tocando Solo
  • Ensinando Solo
  • Encerramento
OK