Cifra Club

Just Older

Bon Jovi

Cifra: Principal (violão e guitarra)
Tom: E
Bon Jovi - Just Older
(One Wild Night)



|-------------------------------------------------------|
|-------------------------------------------------------|
|-------------------------------------------------------|
|-------------2------2--4------4---5---5---4---2--------|
|----4h5----5-------------------------------------------|
|-------------------------------------------------------|


|-------------------------------------------------3--2--|
|-------------------------------------------------3--3--|
|--------------------------------------------2----2--2--|
|---------2----2--4----4--5--5--4--2---------2----------|
|--5----5-------------------------------5h4--0----------|
|-------------------------------------------------------|


(notas abafadas)

G5
Hey, man, it's been a while 
Do you remember me? 
Bm5                           A5
When I hit the streets I was 17 
G5
A little wild, a little green
Bm5                                A5
I've been up and down and in between 

G5 
After all these years of miles and memories
Bm5                     A5 
I'm still chasing dreams
(deixar soar)
G5
But I ain't looking over my shoulder 


- Refrão -

|-------------------------------------------------------|
|-------------------------------------------------------|
|-------------------------------------------------------|
|-------------2------2--4------4---5---5---4---2--------|
|----4h5----5-------------------------------------------|
|-------------------------------------------------------|

I like the bed I'm sleeping in 

|-------------------------------------------------3--2--|
|-------------------------------------------------3--3--|
|--------------------------------------------2----2--2--|
|---------2----2--4----4--5--5--4--2---------2----------|
|--5----5-------------------------------5h4--0----------|
|-------------------------------------------------------|

It's just like me, it's broken in It's not old - Just Older 

|-------------------------------------------------------|
|-------------------------------------------------------|
|-------------------------------------------------------|
|-------------2------2--4------4---5---5---4---2--------|
|----4h5----5-------------------------------------------|
|-------------------------------------------------------|

Like a favorite pair of torn blue jeans 

|-------------------------------------------------3--2--|
|-------------------------------------------------3--3--|
|--------------------------------------------2----2--2--|
|---------2----2--4----4--5--5--4--2---------2----------|
|--5----5-------------------------------5h4--0----------|
|-------------------------------------------------------|

This skin I'm in it's alright with me It's not old - just older 

G5
It's good to see your face 
You ain't no worse for wear 

Bm5                         A5
Breathing that California air 

G5
When we took on the world 
When we were young and brave 

Bm5                                       A5
We got secrets that we'll take to the grave 

(deixar soar)
G5
And we're standing here shoulder to shoulder 

- Refrão -

|-------------------------------------------------------|
|-------------------------------------------------------|
|-------------------------------------------------------|
|-------------2------2--4------4---5---5---4---2--------|
|----4h5----5-------------------------------------------|
|-------------------------------------------------------|

I like the bed I'm sleeping in 

|-------------------------------------------------3--2--|
|-------------------------------------------------3--3--|
|--------------------------------------------2----2--2--|
|---------2----2--4----4--5--5--4--2---------2----------|
|--5----5-------------------------------5h4--0----------|
|-------------------------------------------------------|

It's just like me, it's broken in It's not old - Just Older 

|-------------------------------------------------------|
|-------------------------------------------------------|
|-------------------------------------------------------|
|-------------2------2--4------4---5---5---4---2--------|
|----4h5----5-------------------------------------------|
|-------------------------------------------------------|

Like a favorite pair of torn blue jeans 

|-------------------------------------------------3--2--|
|-------------------------------------------------3--3--|
|--------------------------------------------2----2--2--|
|---------2----2--4----4--5--5--4--2---------2----------|
|--5----5-------------------------------5h4--0----------|
|-------------------------------------------------------|

This skin I'm in it's alright with me It's not old - just older 

G5
I'm not old enough to sing the blues 
Bm5                                      A5
But I wore the holes in the soles of these shoes
G5
You can roll the dice 'til they call your bluff 
Bm5                                   A5
But you can't win until you're not afraid to lose

- Guitar Solo - 

|---------------------------------------------------------------------------------------------|
|---------------------------------------------------------------------------------------------|
|------------------9^~~9--7---9p7>6--7p6>4--6p4>2--4p2p0--4p0-0--2p0-0--4p0-0--4p0-0-----2----|
|----------------------------------------------------------------------------------------2----|
|-5---5-7---7-9--9-----------------------------------------------------------------------0----|
|---------------------------------------------------------------------------------------------|

|---------------------------------------------------------------------------------------------|
|---------------------------------------------------------------------------------15-15-------|
|--4br~~------2---4>7----7----7>9----9----9>11----11----11>12--12--12>14--14--14--------------|
|----------4----------------------------------------------------------------------------------|
|---------------------------------------------------------------------------------------------|
|---------------------------------------------------------------------------------------------|
|---------------------------------------------------------------------------------------------|

|---------------------------------------------------------------------------------------------|
|-15-15h14-12--14p12-10--12p10-9--10p9-7--9p7-5--7p5-5----------------------------------------|
|-------------------------------------------------------4p0-0--2p0-0--4p0-0--4p0-0--4p0-0--2--|
|------------------------------------------------------------------------------------------2--|
|------------------------------------------------------------------------------------------0--|
|---------------------------------------------------------------------------------------------|

|-----------------------------------------|
|--14-14>12-12>10-10---12--14-14---15-15--|
|-----------------------------------------|
|-----------------------------------------|
|-----------------------------------------|
|-----------------------------------------|

|--------0--|
|------3----|
|----2------|
|--0--------|
|-----------|
|-----------|  (entre as frases deixar soar)

Well, I look in the mirror 
I don't hate what I see 
There's a few more lines staring back at me 
The nights have grown a little colder 
Hey man, I gotta run
Now you take care 
If you see coach T. Tell him I cut my hair
I've kept my Faith
I still believe I'm just

- Refrão -
|-------------------------------------------------------|
|-------------------------------------------------------|
|-------------------------------------------------------|
|-------------2------2--4------4---5---5---4---2--------|
|----4h5----5-------------------------------------------|
|-------------------------------------------------------|

I like the bed I'm sleeping in 

|-------------------------------------------------3--2--|
|-------------------------------------------------3--3--|
|--------------------------------------------2----2--2--|
|---------2----2--4----4--5--5--4--2---------2----------|
|--5----5-------------------------------5h4--0----------|
|-------------------------------------------------------|

It's just like me, it's broken in It's not old - Just Older 

|-------------------------------------------------------|
|-------------------------------------------------------|
|-------------------------------------------------------|
|-------------2------2--4------4---5---5---4---2--------|
|----4h5----5-------------------------------------------|
|-------------------------------------------------------|

Like a favorite pair of torn blue jeans 

|-------------------------------------------------3--2--|
|-------------------------------------------------3--3--|
|--------------------------------------------2----2--2--|
|---------2----2--4----4--5--5--4--2---------2----------|
|--5----5-------------------------------5h4--0----------|
|-------------------------------------------------------|

This skin I'm in it's alright with me It's not old - just older

(repete 3x)
|-------------------------------------------------------|
|-------------------------------------------------------|
|-------------------------------------------------------|
|-------------2------2--4------4---5---5---4---2--------|
|----4h5----5-------------------------------------------|
|-------------------------------------------------------|

|-----------------------------------------------------|
|-----------------------------------------------------|
|--------------------------------------------2-----7--|
|---------2----2--4----4--5--5--4--2---------2-----7--|
|--5----5-------------------------------5h4--0-----5--|
|-----------------------------------------------------|
exibições 26.029
Acordes para:

    0 comentários

    mostrar mais comentários

    Conseguiu tocar?

    0 tocaram 0 ainda não

    Grave um vídeo tocando Just Older e mande pra gente!

    00:00 / 00:00
    outros vídeos desta música
    repetir qualidade Automático
    Outros vídeos desta música
    00:00 / 00:00
    Automático
    OK