Cifra Club

Mystery Train

Bon Jovi

Cifra: Principal (violão e guitarra)
Tom: D
 Intr 1: E5 B/Eb C#m A9

 Intro 2: D9 A/C# Bm G


           D9
 There are days whem she's a whisper
 A9
 Night's whem she's a scream
              Bm
 A reason to Wake up in the morning
     G
 to close your eyes and dream
         D9
 She'll curse you like a sailor
          A9
 She'll wound you with her eyes
       Bm
 She always makes it better
      G
 But she won't apologize

PRÉ REFRÃO:
            Bm        A4(6)
 You Know everything about her
      G#m7              G
 But don't know Her at all

REFRÃO:

  D9     A9        Bm    G
 She's a ride on a mystery train
       D9          A9         Bm    G
 To a Place you've never been before
         D9     A9            C       G
 Better hold on tight to that mystery train
         Em              G
 you're not in kansas anymore
     Bm    A9   E
 oh, she's a ride
       G5          D9
 mystery train

 VERSO 2:

        D9
 She's cries because she's happy
      A9
 she sings songs whem she's mad
          Bm
 Like a stiff drink whem you need it
        G
 she's good at being bad

Pré Refrão:

      Bm              A4(6)
 And long before you knew her
     G#m7               G5
 you knew she was the one

REFRÃO:

 D9      A9        Bm      G
 She's a ride on a mystery train
      D9           A9         Bm     G
 to a place you've never been before
         D9     A9            C        G
 better hold on tight to that mystery train
        Em                G
 you're not in kansas anymore
      Bm  A  E
 oh, she's a ride
           G
 mystery train

Solo: (G A9)2x

E|---------------------------9-0-7-0-5-0-3-2-0---|
B|---------------------------------------------3-|
G|------7-7---7>9-7>9-7--------------------------|
D|--7-9-----9-----------9--7---------------------|
A|-----------------------------------------------|
E|-----------------------------------------------|
Faça o gráfico acima 2x

PRÉ REFRÃO:
            Bm         A4(6)
 You know everything about her
     G#m7               G5
 But don't know her at all

REFRÃO FINAL:
 D9      A9        Bm      G
 She's a ride on a mystery train
       D9        A9         Bm     G
 To a place I've never been before
          D9     A9            C        G
 I waited all my life for that mystery train
      Em               G
 I'm not in kansas anymore
      D9     A9  Bm   G
 Oh, she's a ride
       D9     A9   Bm  G
 On a Mystery Train (2x).

Solo Final:(é feito com Slide)esta sequência até
acabar a música: (D9, A9, Bm, G)

E|-------------------------------------------------|
B|-------------------------------------------------|
G|-7-7-9-11-12-7-12-11-7-4-(4>6>7-9-11-12-4>6>7-12-|
D|-------------------------------------------------|
A|-------------------------------------------------|
E|-------------------------------------------------|

E|-------------------------------------------------|
B|-------------------------------------------------|
G|-12-12-12-12-12-11-9>4>6>7)----------------------|
D|-------------------------------------------------|
A|-------------------------------------------------|
E|-------------------------------------------------|

Repita 2x veses a partitura entre "()".
exibições 10.944
Acordes para:
    Colaboração e revisão:
    • Matheus Barcelos

    0 comentários

    mostrar mais comentários

    Conseguiu tocar?

    2 tocaram 0 ainda não

    Grave um vídeo tocando Mystery Train e mande pra gente!

    00:00 / 00:00
    outros vídeos desta música
    repetir qualidade Automático
    Outros vídeos desta música
    00:00 / 00:00
    Automático
    OK