Cifra Club

New Year's Day

Bon Jovi

Cifra: Principal (violão e guitarra)
Tom: G
INTRO 

E|5-5-5-5-5-5-5-5-5-5-5-5-7-7-7-7-2-2-2-2-2-2-2-2-2-2-2-2-------|
A|-------------------------------------------------------7-7-7-7|(2x)
D|--------------------------------------------------------------|
G|--------------------------------------------------------------|

Frase ("The midnight bells are ringing...")

E|-----------------------------------------------------------------|
A|5-5-5-5-5-5-5-5-5-5-5-5-7-7-7-7-0-0-0-0-0-0-0-0-0-0-0-0-0-7-7-7-7|
D|-----------------------------------------------------------------|
G|-----------------------------------------------------------------|

E|------------------------------------------------------------4-4|
A|5-5-5-5-5-5-5-5-5-5-5-5-7-7-7-7-0-0-0-0-0-0-0-0-0-0-0-0--0-0---|
D|---------------------------------------------------------------|
G|---------------------------------------------------------------|

("A newborn baby is cryin...")

E|2-2-2-2-2-2-2-2-2-2-2-2-4-4-4-4-5-5-5-5-5-5-5-5-5-5-5-5-0-0-0-0-0-0-0-0-0-0-0-0-0-5-5-5-5-5-5-5-5-5-5-5-5|
A|---------------------------------------------------------------------------------------------------------|
D|---------------------------------------------------------------------------------------------------------|
G|---------------------------------------------------------------------------------------------------------|

REFRÃO ("And I'm singing hallelujah...")

E|-------------------------------------------------------------------------|
A|7-7-7-7-5-5-5-5-5-5-5-5-5-5-5-5-7-7-7-7-0-0-0-0-0-0-0-0-0-0-0-0-0-7-7-7-7|
D|-------------------------------------------------------------------------|
G|-------------------------------------------------------------------------|

E|------------------------------------------------------------4-4|
A|5-5-5-5-5-5-5-5-5-5-5-5-7-7-7-7-0-0-0-0-0-0-0-0-0-0-0-0--0-0---|
D|---------------------------------------------------------------|
G|---------------------------------------------------------------|

E|2-2-2-2-2-2-2-2-2-2-2-2-4-4-4-4-5-5-5-5-5-5-5-5-5-5-5-------------------------------2-2-2-2-2-2-2-2-4-4-4-4-4-4-4-4|
A|-----------------------------------------------------5-5-5-5-5-5-5-5-4-4-4-4-4-4-4-4-------------------------------|
D|-------------------------------------------------------------------------------------------------------------------|
G|-------------------------------------------------------------------------------------------------------------------|
Depois desse refrão a frase volta a ser repetida...
Após a repetição do refrão, a INTRO volta a ser tocada...
Após a INTRO teremos uma frase (FRASE 2), Na Frase 2§("...It's new year's day...") o baixo vai acompanhar a guitarra.

Frase 2 ("Where does the time go?...")

E|--------------------------------------------------2-2-2-2-2-2-2-2-2-2-2-2|
A|5-5-5-5-5-5-5-5-5-5-5-5-5-4-4-4-4-4-4-4-4-4-4-4-4------------------------|
D|-------------------------------------------------------------------------|
G|-------------------------------------------------------------------------|

("It's new year's day...")
E|----------|
A|7h9-------|
D|---6h7h9--|
G|--------6-|

E|--------------------------------------------------2-2-2-2-2-2-2-2-2-2-2-2|
A|5-5-5-5-5-5-5-5-5-5-5-5-5-4-4-4-4-4-4-4-4-4-4-4-4------------------------|
D|-------------------------------------------------------------------------|
G|-------------------------------------------------------------------------|

("It's new year's day...")
E|--------------------------|
A|7h9-----------------------|
D|---6h7h9------------------|
G|--------6h7h9h11h13h14h16-|

...Depois Volta FRASE 1:

E|-----------------------------------------------------------------|
A|5-5-5-5-5-5-5-5-5-5-5-5-7-7-7-7-0-0-0-0-0-0-0-0-0-0-0-0-0-7-7-7-7|
D|-----------------------------------------------------------------|
G|-----------------------------------------------------------------|

E|------------------------------------------------------------4-4|
A|5-5-5-5-5-5-5-5-5-5-5-5-7-7-7-7-0-0-0-0-0-0-0-0-0-0-0-0--0-0---|
D|---------------------------------------------------------------|
G|---------------------------------------------------------------|

E|2-2-2-2-2-2-2-2-2-2-2-2-4-4-4-4-5-5-5-5-5-5-5-5-5-5-5-5-0-0-0-0-0-0-0-0-0-0-0-0-0-(5)|
A|-------------------------------------------------------------------------------------|
D|-------------------------------------------------------------------------------------|
G|-------------------------------------------------------------------------------------|



REFRÃO ("And I'm singing hallelujah...")

E|-------------------------------------------------------------------------|
A|5-5-5-5-5-5-5-5-5-5-5-5-7-7-7-7-0-0-0-0-0-0-0-0-0-0-0-0-0-7-7-7-7--------|
D|-------------------------------------------------------------------------|
G|-------------------------------------------------------------------------|

E|------------------------------------------------------------4-4|
A|5-5-5-5-5-5-5-5-5-5-5-5-7-7-7-7-0-0-0-0-0-0-0-0-0-0-0-0--0-0---|
D|---------------------------------------------------------------|
G|---------------------------------------------------------------|

E|2-2-2-2-2-2-2-2-2-2-2-2-4-4-4-4-5-5-5-5-5-5-5-5-5-5-5-------------------------------2-2-2-2-2-2-2-2-4-4-4-4-4-4-4-4|
A|-----------------------------------------------------5-5-5-5-5-5-5-5-4-4-4-4-4-4-4-4-------------------------------|
D|-------------------------------------------------------------------------------------------------------------------|
G|-------------------------------------------------------------------------------------------------------------------|

FINAL

E|5-5-5-5-5-5-5-5-5-5-5-5-7-7-7-7-2-2-2-2-2-2-2-2-2-2-2-2----------|
A|-------------------------------------------------------7-7-7-7---|
D|--------------------------------------------------------------(7)|
G|-----------------------------------------------------------------|
exibições 263
Acordes para:
    Composição: Billy Falcon / Jon Bon Jovi Colaboração e revisão:
    • Gabriel Reis

    0 comentários

    mostrar mais comentários

    Conseguiu tocar?

    0 tocaram 0 ainda não

    Grave um vídeo tocando New Year's Day e mande pra gente!

    00:00 / 00:00
    outros vídeos desta música
    repetir qualidade Automático
    Outros vídeos desta música
    00:00 / 00:00
    Automático
    OK