Cifra Club

Right Side Of Wrong

Bon Jovi

Cifra: Principal (violão e guitarra)
Tom: C
Intro
C Em F G
C Em Dm G

Verse

C            Em        F        G 
A friend of a friend needs a favor
C             Em      F               G
No questions asked, there's not much more to say
C           C7        F
Me and the wife, we need the money
                Am        G     F      C    C7
We've got four kids all hungry, one on the way

Bridge:
  F                        G 
Slip these sweat socks in your shirt 
      C         C7
and pray they think your packin'
   F                   G 
Be sure to keep your head down, 
       Am
don't look 'em in the eye

F               G               Am   Am/G     F
And don't get fancy, Ricky, we ain't Jimmy Cagney
F                            G              C       
Look at me, let's do the job and let's get home 
   C7
tonight

Chorus:
F                    G              C       
I got a half tank of gas and if we run all the
    C7
lights
F                       G             C           
We'll slip across the border on the wrong side of 
   C7
right
F                    G                 Am   Am/G  
And just like Butch and Sundance we'll ride until 
     F
the dawn
   F                           Fm
Sipping whiskey, singing cowboy songs 
        C             Em      F       G
On the Right Side of Wrong

Verse:
  C                      Em 
We picked a helluva of a night, 
        F                G 
from the shore I see the skyline
     C                    Em 
In a couple of hours from now Rick, 
   F                    G
we're gonna get out of this life
            C                      C7
We'll stop for smokes, I brought a six pack, 
       F 
we'll stop at lookers on the way back
       Am 
Hell, we'll laugh this off, 
      G                    F        G    C     C7 
keep your fingers crossed that all goes well tonight

Chorus:
F                     G             C       
I got a half tank of gas and if we run all the 
    C7
lights
F                      G              C      
We'll slip across the border on the wrong side of 
 C7
right
F                    G                 Am     Am/G 
And just like Butch and Sundance we'll ride until 
     F    
the dawn
  F                             Fm
Sipping whiskey, singing cowboy songs 
        C             Em    
On the Right Side of Wrong

Bridge2
Eb 
We'll make the grade, they'll know our names, 
Bb
I need a friend to drive here
F 
Wear my necklace of St. Christopher 
     C                  Dsus2
and talk to him while I go inside
Eb
I'll take that suitcase, 
Bb
get the cash and we'll be gone before you know
F 
Wait until we tell the girls 
              Fm 
we're moving down to the Gulf of Mexico...

Guitar Solo
G# C#
G# C#
F Bb F Bb
F Bb F Bb
F Bb F Bb
Dm C F G

Verse
C              Em      F        G 
A friend of a friend needed a favor
C                   Em                     F      
Life was just what happened while we were busy 
        G
making plans        
                C                  C7
We never saw nothing, there was a run-in
    F                   Fm
9 millimeter steel was coming 
           Am                  G
for the windshield of that Oldsmobile
        F              C     C7
As the cop said, "Show your hands!"

Chorus:
F                     G             C        
I got a half tank of gas and if we run all the 
    C7
lights
F                       G             C     
We'll slip across the border on the wrong side of 
  C7
right
F                    G                 Am    Am/G
And just like Butch and Sundance we'll ride until 
      F
the dawn
   F                           Fm
Sipping whiskey, singing cowboy songs 
        C             Em    
On the Right Side of Wrong
____________________________________________________________________________________

Eu tirei esse solo tudo de ouvido. Não sei se está certo, mas está parecido.
Solo:
E|----8-8----10~--------7-8-10-7------  --8-8----10~-----7-8-10--15--10br--
B|--------10-----10--------------10b--  ------10----10---------------------
G|------------------7~----------------  ---------------7-------------------
D|------------------------------------  -----------------------------------
A|------------------------------------  -----------------------------------
E|------------------------------------  -----------------------------------

E|---------------------------------------------------------------------------------
B|----------------13----------------------------------------------10----12/15------
G|--14p12----14~--14-14~-12\10-10-12------------------------12---------------------
D|--------14-------------------------10~-------10~-10-12-10----10----10------------
A|---------------------------------------10p12-------------------------------------
E|---------------------------------------------------------------------------------

E|-----------15b-13-15-----/131313131313131313----12-13-15b~-----------------------
B|-/15-15-12-----------15----------------------15----------------------------------
G|------------------------------------------------------------10p12p14-10p14h12h14-
D|---------------------------------------------------------------------------------
A|---------------------------------------------------------------------------------
E|---------------------------------------------------------------------------------

E|---------------------------------------------------------15----------------------
B|-------------------------------------------------10-/15b----15~------------------
G|----------12b12b12b12b12b12-10p12h10----------12---------------------------------
D|-12-10-12----------------------------12-10-12------------------------------------
A|---------------------------------------------------------------------------------
E|---------------------------------------------------------------------------------

E|---------------------------------------------------13~-12-13-12~-10-12-13~-------
B|--12 15-13-12-13-12-12-15-13-12-13-12--------------------------------------------
G|--------------------------------------12-14--------------------------------------
D|--------------------------------------------14~~~--------------------------------
A|---------------------------------------------------------------------------------
E|---------------------------------------------------------------------------------

E|---------------------------------------------------------------------------------
B|---12-13-15~--12-----------------------------------------------------------------
G|-----------------14h12-----------------------------------------------------------
D|-----------------------14h12-----------------------------------------------------
A|-----------------------------14~~~~----------------------------------------------
E|---------------------------------------------------------------------------------

Se tiver algum erro por favor corrijam.
Solo tirado por:
Rafael Luzini


VALEW.
exibições 8.524
Acordes para:
    Composição: Jon Bon Jovi Colaboração e revisão:
    • Diego Ghilardi
    • Rafael

    0 comentários

    mostrar mais comentários

    Conseguiu tocar?

    2 tocaram 0 ainda não

    Grave um vídeo tocando Right Side Of Wrong e mande pra gente!

    00:00 / 00:00
    outros vídeos desta música
    repetir qualidade Automático
    Outros vídeos desta música
    00:00 / 00:00
    Automático
    OK