Cifra Club

Aprenda

Stick To Your Guns

Bon Jovi

Cifra: Principal (violão e guitarra)
tom: D
Intro: D9 G  (4x)

E|------------------3---------------------------------------|
B|-7~--7-7-5-3-0~----0-0--0h2---2-3--3/5--3---3--2---2--0~--|
G|-7~--7-7-6-4-0~-----0-----2--2-----2/4--4--4---2--2---0~--|
D|----------------------------0-----------4-4----2-2--------|
A|----------------------------------------------------------|
E|----------------------------------------------------------|
                                                                2x
E|-3--------------------------------------------------------|
B|--0-0~---------------3-2~---------------------------------|
G|---0-----------------2-2~---------------------------------| 
D|--------0-0-0--0---------------0-2p0----------------------|
A|--------0-0-0h2-2~----------0h2---------------------------|
E|----------------------------------------------------------|

D                      G                          D      A
So you want to be a cowboy well, it's more than just a ride
D                          G
Guess you got to know the real thing if you want to know
      D     A
the other side
D                       G             D      A
Ain't nobody riding shotgun in this world tonight

D9 G
And when you spit, you better mean it
D9 G
You got to make 'em all believe it
D9 G                    A     G    A
If you're gonna be the one

D                  G
Stick to your guns
A                           Bm          A
Ain't nobody gonna hurt you, baby
G
You can go for the trigger
                       D      A
But only if you have to
D              G    A                           Bm           A
Aim from the heart some will love and some will curse you, baby
G                                      D    A
And you can go to war but only if you have to

It's only if you have to

E|------------------3---------------------------------------|
B|-7~--7-7-5-3-0~----0-0--0h2---2-3--3/5-0~-----------------|
G|-7~--7-7-6-4-0~-----0-----2--2-----2/4-0~-----------------|
D|----------------------------0------------------0-2p0------|
A|--------------------------------------------0h2-----------|
E|----------------------------------------------------------|

D                      G
So you want to be the big time
                     D       A
Some people have to drag you down
D                          G
There's no living in the backseat
                         D          A
If you're gonna drive through the town
D                          G
And when you pray for independence
                 D           A
Boy you better stand your ground

D9 G
You got to give it all you got now
D9 G
Or you might get shot down
D9 G                            A     G    A
Fight hard until the battle is won

D                  G
Stick to your guns
A                    Bm          A
Ain't nobody gonna hurt you, baby
G
You can go for the trigger
                 D    A
But only if you have to
D              G    A                           Bm           A
Aim from the heart some will love and some will curse you, baby
G                                      D    A
And you can go to war but only if you have to

D Bm D A G Bm A

D9 G
Well, you know that I been through it
D9 G
I got the scars to prove it
D9 G                           A     G    A
Fight hard and the battle is yours

D                  G
Stick to your guns
A                    Bm          A
Ain't nobody gonna hurt you, baby
G
You can go for the trigger
                 D    A
But only if you have to
D              G    A                           Bm           A
Aim from the heart some will love and some will curse you, baby
G                                      D    A
And you can go to war but only if you have to
                          D  G  A  G  A
It's only if you have to
                          D  G  A  G  A
But stick to your guns...
Composição de Holly Knight / Jon Bon Jovi / Richie Sambora
Colaboração e revisão:
  • Kevin Rui
  • bruno lobao
  • Kaue
10.177 exibições
    • ½ Tom
    • A
    • Bb
    • B
    • C
    • Db
    • D
    • Eb
    • E
    • F
    • F#
    • G
    • Ab
  • Adicionar à lista

    0 comentários

    Ver todos os comentários

    Conseguiu tocar?

    2 Tocaram 0 Ainda não

    Grave um vídeo tocando Stick To Your Guns e nos envie!

    00:00 / 00:00
    Outros vídeos desta música
    Repetir Qualidade Automático
    Outros vídeos desta música
    00:00 / 00:00
    Automático

    Cifra Club Pro

    Aproveite o Cifra Club com benefícios exclusivos e sem anúncios
    Cifra Club Pro
    Aproveite o Cifra Club com benefícios exclusivos e sem anúncios
    OK