Cifra Club

The Devil's In The Temple

Bon Jovi

Cifra: Principal (violão e guitarra)
Tom: G
Intro: Riff 1


E|--------------------------------------|
B|--------------------------------------|
G|--------------------------------------|
D|------------4-4-4-5------------4-4-4-5|
A|--5-5-5-7---5-5-5-5--5-5-5-7---5-5-5-5|
E|--3-3-3-3---3-3-3-3--3-3-3-3---3-3-3-3|


(Riff 1)
This was a church
A house full of prayer

Riff 2: x2

E|---------------------------------------|
B|--3-3-3-3-------------3-3-3-3----------|
G|--2-2-2-4---5-5-5-7---2-2-2-4---5-5-5-7|
D|--0-0-0-0---0-0-0-0---0-0-0-0---0-0-0-0|
A|---------------------------------------|
E|---------------------------------------|

                (Riff 2)
It ain't that now
I could tear it down
(Riff 1)
There's thieves at the altar
A snake wears the crown
            (Riff 2)
Handing you coal
              (Passagem 1)  
Swearing it's gold

Passagem 1:

E|--------------------------|
B|--------------------------|
G|--2--4--5--7--9-11--------|
D|--2-----------------------|
A|--0--2--3--5--7-9---------|
E|--------------------------|

Refrão:
E5
Look what they've done to this house of love
A5
It's too late to turn river to blood
C5                                             E5
The saviors come and gone, we're all out of time
C5
The devil's in the temple and he ain't no friend of mine


(Riff 1)


(Riff 1)
I'd turn things around
I would if I could
                     (Riff 2)
Crash through the gates
Break every chain
(Riff 1)
Jail for the jealous
Sing freedoms song
            (Riff 2)
Amazing grace
              (Passagem 1)
Burn down this place

(Refrão)

Solo:

(Parte 1)

E|-22...17...19...15...14...15...22...17...19...15...14...15~-|
B|------------------------------------------------------------|
G|------------------------------------------------------------|
D|------------------------------------------------------------|
A|------------------------------------------------------------|
E|------------------------------------------------------------|

(Parte 2)

E|-----------------------------------------------------------------------|
B|-----------------------------------------------------------------------|
G|----------------------------7-7-9~~----------------------------7-9-7~~-|
D|----------------7-7-7-9-9-9------------------------7-7-7-9-9-9---------|
A|-7-7-7-10-10-10---------------------7-7-7-10-10-10---------------------|
E|-----------------------------------------------------------------------|

E|-------------------------------------------|
B|-------------------------------------------|
G|----------------------------7-7-9~~--------|
D|----------------7-7-7-9-9-9---------2------|
A|-7-7-7-10-10-10---------------------2------|
E|------------------------------------0------|


E5                                     C9   A5
Look what they've done to this house of love
E5                                     C9   A5
Look what they've done to this house of love
E5
The devil's in the temple and he's making a mess
A5
Got the Mona Lisa, got his hands up her dress
C9
The gun is in his hand but he ain't gonna confess
E5
He lies


E5
Look what they've done to this house of love
A5
It's too late to turn river to blood
C5                                              E5
The saviors come and gone, we're all out of time
(Solo: parte 2 (x2))                            E5
The devil's in the temple and he ain't no friend of mine
C5                                              E5
The devil's in the temple and he ain't no friend of mine
C 5                                             E5
The devil's in the temple and he ain't no friend of mine
exibições 402
Acordes para:
    Composição: Billy Falcon / Jon Bon Jovi Colaboração e revisão:
    • Gustavo Maia
    • Antonio Lima

    0 comentários

    mostrar mais comentários

    Conseguiu tocar?

    0 tocaram 0 ainda não

    Grave um vídeo tocando The Devil's In The Temple e mande pra gente!

    00:00 / 00:00
    outros vídeos desta música
    repetir qualidade Automático
    Outros vídeos desta música
    00:00 / 00:00
    Automático
    OK