Cifra Club

Aprenda

Wanted Dead Or Alive

Bon Jovi

Cifra: Solo (violão e guitarra)
Já pensou em usar uma coleção de roupas do Cifra Club? Responda as perguntas abaixo e nos ajude nessa missão! →
tom: C
Solo:

E|------------------------------------------|
B|------------------------------------------|
G|-7\5--5/7~--------------------------------|
D|----------------------------0h3-5b7--b7---|
A|-5\3--3/5~---5\3-3h5~---5-0---------------|
E|------------------------------------------|

E|----------------------------13-15-15b17---|
B|----------------------13-15---------------|
G|----------------12-14---------------------|
D|-b7--b7r5--3~~----------------------------|
A|------------------------------------------|
E|------------------------------------------|

E|-b17r15p13-15b17~~------------------------|
B|------------------------------------------|
G|------------------------------------------|
D|-------------------------------5-5-5/7~---|
A|-----------------------5~--3-0-3-3-3/5~---|
E|------------------------------------------|

E|------------------------------------------|
B|------------------------------------------|
G|------------------------------------------|
D|-----3~----------3-5-5b7r5-3~-------------|
A|-3-5-----5p0-3h5--------------------------|
E|------------------------------------------|

E|------------------------------------------|
B|------------------------------------------|
G|------------------------------------------|
D|-0h3p0-------3-2h3-2-3~~------------------|
A|-------5-3-5------------------------------|
E|------------------------------------------|

E|-------8-------8-------8------------------|
B|-8b10----8b10----8b10----8b10r8-6~--------|
G|------------------------------------------|
D|------------------------------------------|
A|------------------------------------------|
E|------------------------------------------|

E|------------------------------------------|
B|------------------------------------------|
G|------------------------------------------|
D|---------------7~-------------------------|
A|-3h5-3---------5~-------------------------|
E|-------7-5-3-2----------------------------|
Composição de Jon Bon Jovi / Richie Sambora
Colaboração e revisão:
  • Vinícius Dias
  • Ricardo Reis
7.226 exibições
  • Simplificar cifra
    • ½ Tom
    • A
    • Bb
    • B
    • C
    • Db
    • D
    • Eb
    • E
    • F
    • F#
    • G
    • Ab
  • Adicionar à lista

    0 comentários

    Ver todos os comentários

    Conseguiu tocar?

    1 Tocaram 0 Ainda não

    Grave um vídeo tocando Wanted Dead Or Alive e nos envie!

    00:00 / 00:00
    Outros vídeos desta música
    Repetir Qualidade Automático
    Outros vídeos desta música
    00:00 / 00:00
    Automático
    Capítulos
    • Tocando a música
    • Dicas Iniciais / Equipamentos
    • Solo (32bpm)
    • Solo (65bpm)
    • Encerramento
    • Ficha Técnica

    Cifra Club Pro

    Aproveite o Cifra Club com benefícios exclusivos e sem anúncios
    Cifra Club Pro
    Aproveite o Cifra Club com benefícios exclusivos e sem anúncios
    OK