Cifra Club

Wanted Dead Or Alive

Bon Jovi

Tab de baixo: Principal
VERSE
G|------------|--------------|
D|-----------5|-----5----3---|
A|--5--5--3---|--3-----3---5-|
E|------------|--------------|

CHORUS
G|--------------|---------------|
D|-----5--3-----|-----5------3--|
A|--3--------5--|--3-----3-5---5|
E|--------------|---------------|

 
exibições 15.478
Composição: Jon Bon Jovi / Richie Sambora Colaboração e revisão:
  • Matheus França

0 comentários

mostrar mais comentários

Conseguiu tocar?

1 tocaram 0 ainda não

Grave um vídeo tocando Wanted Dead Or Alive e mande pra gente!

00:00 / 00:00
outros vídeos desta música
repetir qualidade Automático
Outros vídeos desta música
00:00 / 00:00
Automático
OK