What do You Got

Bon Jovi

Composição: Brett James / Jon Bon Jovi / Richie Sambora
Tom: D
Intro - Guitarra 1 (Capo 9)

   A                                  E
E|----------------------------------|------------------------------------|
B|-1------1------1----1-----1-------|------------------------------------|
G|-0------0------0----0-----0-------|-0-------0-----0-----0----------0---|
D|-0h2----2------0h2--0h2---0-------|-0-------0-----0-----0----------0---|
A|----------------------------------|-0h2-----2-----0h2---0h2--------0---|
E|----------------------------------|------------------------------------|


   F#m                                D
E|----------------------------------|------------------------------------|
B|-1------1------1----1-----1-------|-1------1----1----1---------1-------|
G|-0h2----2------0h2--0h2---0-------|-0h2----2----0h2--0h2-------0-------|
D|-0h2----2------0h2--0h2---0-------|-3------3----3----3---------3-------|
A|----------------------------------|------------------------------------|
E|----------------------------------|------------------------------------|


Guitarra 2 

A                           E
Everybody wants something, just a little more
F#m                         D
We're makin' a living, and what we're livin' for
A                           E
A rich man or a poor man, a pawn or a king
F#m
You can live on the street, you can rule the whole
world
D
But you don't mean one damn thing

A
What do you got if you ain't got love
E
Whatever you got it just ain't enough
F#m
You're walkin' the road but you're goin' nowhere
D
You're tryin' to find your way home but there's no
one there
A
Who do you hold in the dark of night
E
You wanna give up but it's worth the fight
F#m                                        D
You have all the things that you've been dreamin' of

A                               E
If you ain't got someone, you're afraid to lose
F#m                             D
Everybody needs just one, someone... to tell them the
truth
A                               E
Maybe I'm a dreamer, but I still believe
F#m                             D
I believe in hope, I believe the change can get us
off of our knees

A
What do you got if you ain't got love
E
Whatever you got it just ain't enough
F#m
You're walkin' the road but you're goin' nowhere
D
You're tryin' to find your way home but there's no
one there
A
Who do you hold in the dark of night
E
You wanna give up but it's worth the fight
F#m                                        D
You have all the things that you've been dreamin' of

D                A                  E
If you ain't got love, it's all just keeping score
D                A                  E
If you ain't got love, what the hell we doing it for?

G
I don't wanna have to talk about it,
D
How many songs you gotta sing about it
A
How long you gonna live without it
G
Why does someone somewhere have to doubt it,
D                   E
Someday you'll figure it out

Solo: D A G D A


E|----------------------------------------------|
B|-5/15-15--17-14/10-10-8-8/10-7-3-3/5----------|
G|----------------------------------------------|
D|----------------------------------------------|
A|----------------------------------------------|
E|----------------------------------------------|


A
What do you got if you ain't got love
E
Whatever you got it just ain't enough
F#m
You're walkin' the road but you're goin' nowhere
D
You're tryin' to find your way home but there's no
one there
A
Who do you hold in the dark of night
E
You wanna give up but it's worth the fight
F#m                                        D
You have all the things that you've been dreamin' of

D                A                  E
If you ain't got love it's all just keeping score
D                A                  E
If you ain't got love what the hell we doin' it for?

D    A   E
Woahhh, what do you got it if you ain't got love
D    A   E
Woahhh, what do you got if you ain't got love
D    A   E
Woahhh, what do you got it if you ain't got love
D    A   E
Página 1 / 1

Letras e título
Acordes e artista

resetar configurações
variar acorde