Cifra Club

You Give Love A Bad Name

Bon Jovi

Tab de baixo: Principal
Introdução

Parte 01

G|--------------------------------------------|
D|--------------------------------------------|
A|-3-----------------------6------1-2-3-------|
E|---4-6-8-6-6-8--4-6--6-8---8--3-------4-----|

G|--------------------------------------------|
D|--------------------------------------------|
A|--------------------------------------------|
E|-6-8-6-6-8--4-6-----------------------------|

parte 02( Tocar 2x )

G|--------------------------------------------|
D|---------1-1--------------1-1---------------|
A|-3---1-3-----3-1--3---1-3-----3-------------|
E|---3----------------3-----------------------|

Primeira parte

An angel's smile is what you sell...

Parte 01 ( tocar 4x )

G|--------------------------------------------|
D|---------1-1--------------1-1---------------|
A|-3---1-3-----3-1--3---1-3-----3-------------|
E|---3----------------3-----------------------|

Parte 02

G|--------------------------------------------|
D|-----------------------------3-4------------|
A|-----------------------------1-2------------|
E|-1-1-1-1-1--1-1-1-1--1-1-1-1----------------|

Parte 03 

G|------------------------------8-8-----------|
D|---------1-1-------10----8-10-----10--------|
A|-3---1-3-----3-1/8----10--------------------|
E|---3----------------------------------------|

G|--------------------------------------------|
D|--------------------------------------------|
A|-----------------------------3--------------|
E|-6-6-6-6--6-6-6-6--6-6-6-6-6---6-3----------|

G|--------------------------------------------|
D|--------------------------------------------|
A|--------------------------------------------|
E|-1-1-1-1--1-1-1-1--3-3-3-3-3--3-3-3-3-3-----|

Refrão 

Shot through the heart ...

Parte 01

G|--------------------------------------------|
D|-----------------------------8-9-10---------|
A|-3-----------------------6------------------|
E|---4--6-8-6-6-8--4-6-6-8---8----------------|

G|--------------------------------------------|
D|--------------------------------------------|
A|---------------------------6----------------|
E|-8--4--6-8-6-6-8-6-4-6-6-8---8-6-4-6--------|

Introdução 02

parte 01( Tocar 2x )

G|--------------------------------------------|
D|---------1-1--------------1-1---------------|
A|-3---1-3-----3-1--3---1-3-----3-------------|
E|---3----------------3-----------------------|

Segunda parte 

Paint your smile on your lips...

Parte 01 ( tocar 4x )

G|--------------------------------------------|
D|---------1-1--------------1-1---------------|
A|-3---1-3-----3-1--3---1-3-----3-------------|
E|---3----------------3-----------------------|

Parte 02

G|--------------------------------------------|
D|--------------------------------------------|
A|-----------------------------1-2------------|
E|-1-1-1-1-1--1-1-1-1--1-1-1-1----------------|

Parte 03 

G|------------------------------8-8-----------|
D|---------1-1-------10----8-10-----10--------|
A|-3---1-3-----3-1/8----10--------------------|
E|---3----------------------------------------|

G|--------------------------------------------|
D|--------------------------------------------|
A|-----------------------------3--------------|
E|-6-6-6-6--6-6-6-6--6-6-6-6-6---6-3----------|

G|--------------------------------------------|
D|--------------------------------------------|
A|--------------------------------------------|
E|-1-1-1-1--1-1-1-1--3-3-3-3-3--3-3-3-3-3-----|

Refrão 02

Shot through the heart ...

Parte 01

G|--------------------------------------------|
D|-----------------------------8-9-10---------|
A|-3-----------------------6------------------|
E|---4--6-8-6-6-8--4-6-6-8---8----------------|

G|--------------------------------------------|
D|--------------------------------------------|
A|---------------------------6----------------|
E|-8--4--6-8-6-6-8-6-4-6-6-8---8-6-4-6--------|

Solo de Guitarra

Parte 01

G|--------------------------------------------|
D|--------------------------------------------|
A|-10\-3------------3---1-3------------3h5----|
E|-------4--6-8-6-6---3-----4--6-8-6-8--------|

G|--------------------------------------------|
D|--------------------------------------------|
A|-3---1--3------------3---1-3----------------|
E|---3------4--6-8-6-6---3-----4--------------|

Parte 02

G|--------------------------------------------|
D|--------------------------------------------|
A|--------------------------------------------|
E|-3-3-3-3--3-3-3-3--3-3-3-3--3-3-3-3---------|

Refrão 03 Final

parte 01

G|--------------------------------------------|
D|-10--10-------------------------------------|
A|--------10----------------------------------|
E|--------------------------------------------|

Parte 02

Shot through the heart ...

G|--------------------------------------------|
D|-----------------------------8-9-10---------|
A|-3-----------------------6------------------|
E|---4--6-8-6-6-8--4-6-6-8---8----------------|

G|--------------------------------------------|
D|--------------------------------------------|
A|-----------------------------6--------------|
E|-8--4--6-8-6-6-8-6--4-6--6-8---8--6---------|

Parte 03 ( Tocar 7x + fade out )

G|--------------------------------------------|
D|--------------------------------------------|
A|------------------6-6-----------------------|
E|-4-4-4--6-6-6-6-8-----8-8-8-8-8--6----------|
exibições 31.958
Composição: Jon Bon Jovi / Richie Sambora / Sérgio Bittencourt Colaboração e revisão:
  • Reginaldo Costa

0 comentários

mostrar mais comentários

Conseguiu tocar?

8 tocaram 0 ainda não

Grave um vídeo tocando You Give Love A Bad Name e mande pra gente!

00:00 / 00:00
outros vídeos desta música
repetir qualidade Automático
Outros vídeos desta música
00:00 / 00:00
Automático
Capítulos
  • Tocando a música
  • Dicas Iniciais / Equipamentos
  • Introdução 1 - Parte 1 de 2
  • Introdução 1 - Parte 2 de 2
  • Primeira Parte - Parte 1 de 3
  • Primeira Parte - Parte 2 de 3
  • Primeira Parte - Parte 3 de 3
  • Dicas 2
  • Refrão 1
  • Introdução 2
  • Dicas 3
  • Segunda Parte - Parte 1 de 3
  • Segunda Parte - Parte 2 de 3
  • Segunda Parte - Parte 3 de 3
  • Refrão 2
  • Dicas 4
  • Solo de Guitarra - Parte 1 de 2
  • Solo de Guitarra - Parte 2 de 2
  • Refrão Final - Parte 1 de 3
  • Refrão Final - Parte 2 de 3
  • Refrão Final - Parte 3 de 3
  • Encerramento
  • Ficha técnica / Erros de gravação
OK