Cifra Club

Brick By Brick

Boom Boom Kid

Tab de baixo: Principal
exibições 1.317
Easy and slow song

Intro
G|---55-33-55----55-33-55---------| X3 
D|-22---------22------------------|
A|--------------------------------|
E|--------------------------------|

Chorus( listen for timing
G|---------5555553333335555-------|  
D|-2222222------------------------|
A|--------------------------------|
E|--------------------------------|

G|--------------------------------| 
D|-2-2222/4-4444-5555-7-777/99----|
A|--------------------------------|
E|--------------------------------|

Verse
G|---55-33-55----55-33-55---------| X3 
D|-22---------22------------------|
A|--------------------------------|
E|--------------------------------|

Chorus X3
G|---------5555553333335555-------|  
D|-2222222------------------------|
A|--------------------------------|
E|--------------------------------|
                                       X3
G|--------------------------------|
D|-2-2222/4-4444-5555-7-777/99----|
A|--------------------------------|
E|--------------------------------|

Ending
G|---55-33-55----55-33-55---------| X2
D|-22---------22------------------|
A|--------------------------------|
E|--------------------------------|

G|--------------------------------|
D|-2~-----------------------------|
A|--------------------------------|
E|--------------------------------|

0 comentários

    mostrar mais comentários

    Conseguiu tocar?

    0tocaram0ainda não

    Grave um vídeo tocando Brick By Brick e mande pra gente!

    00:00 / 00:00
    outros vídeos desta música
    repetirqualidadeAutomático
    Outro vídeos desta música
      00:00 / 00:00
      OK