Cifra Club

Okey Dokey

Boom Boom Kid

Tab de baixo: Principal
exibições 667
Oi!!! so, we dont have any BBK tabs, ad as much as u can!!!
hit th strings really hard for pulling the sound out

Intro
G|-7-97--7-79--10--1210--7-97------7-97--9-| X2
D|----------------------------7-97---------|
A|-----------------------------------------|
E|-----------------------------------------|

Chorus (listen for the timing)
G|------------------------9-------| X4
D|-777777777-555555555------------|
A|--------------------------------|
E|--------------------------------|

G|-7-97--7-79--10--1210--7-97------7-97--9-| X2
D|----------------------------7-97---------|
A|-----------------------------------------|
E|-----------------------------------------|

Chorus (listen for the timing)
G|------------------------9-------| X4
D|-777777777-555555555------------|
A|--------------------------------|
E|--------------------------------|

JD
Composição: Nekro

0 comentários

mostrar mais comentários

Conseguiu tocar?

0 tocaram 0 ainda não

Grave um vídeo tocando Okey Dokey e mande pra gente!

00:00 / 00:00
outros vídeos desta música
repetir qualidade Automático
Outros vídeos desta música
00:00 / 00:00
Automático
OK