Cifra Club

Aprenda

Looking After No 1

Boomtown Rats

Tab de baixo: Principal
Great song which is easy to play! I think this is the only tab for it!!!

Intro:

G--
D--
A50
E--

Verse:

G-----------|
D-----------|  X2
A--------75-|
E00000000--5

G---------------------|
D---------------------|
A--------55557777-----|
E00000000--------5555-|

G--------|
D--------|
A--------|
E5-0-5-0-|

G-----------|
D-----------|  X2
A--------75-|
E00000000--5

G---------------------|
D---------------------|
A--------55557777-----|
E00000000--------5555-|

Chorus

G-------------------------------------|
D-------------------------------------|
A-5---555555--------3333--5---555555--|
E5-0--------55552222-----5-0--------0-|

Verse 2:

G-----------|
D-----------|  X2
A--------75-|
E00000000--5

G---------------------|
D---------------------|
A--------55557777-----|
E00000000--------5555-|

G-----------|
D-----------|  X2
A--------75-|
E00000000--5

G--------|
D--------|
A--------|
E0-0-0-0-|

G-------------|
D-------------|
A55557777-----|
E--------5555-|

Repeat Chorus (With More Open Es On The Last Bar)

Bridge:

G--------------|
D--------------|  X2
A--------------|
E00000000-55-55

G-----------------|
D-----------------|
A-----------55----|
E0000000-55----55-|

G--------------|
D--------------|
A------------5-|
E0-05-05-05-0--|

Solo:

G------------------------------|
D------------------------------|  X2
A------------------------------|
E000000000000005555555555555555

Verse 3:

G-----------|
D-----------|  X2
A--------75-|
E00000000--5

G---------------------|
D---------------------|
A--------55557777-----|
E00000000--------5555-|

G-----------|
D-----------|  X2
A--------75-|
E00000000--5

G---------------------|
D---------------------|
A--------55557777-----|
E00000000--------5555-|

Repeat Chorus (With More Open Es On The Last Bar)

Outro:

G--------------|
D--------------|  X2
A--------------|
E00000000-55-55

G-----------------|
D-----------------|
A-----------55----|
E0000000-55----55-|

G----------|
D----------|
A----------|
E0-5-5-5-0-|  End!

Please Rate and Send Me Corrects But I Am Sure Its Pretty Much All There Just Needs To 
Well Timed In Chorus!
Composição de Bob Geldof
217 exibições

0 comentários

Ver todos os comentários

Conseguiu tocar?

0 Tocaram 0 Ainda não

Grave um vídeo tocando Looking After No 1 e nos envie!

00:00 / 00:00
Outros vídeos desta música
Repetir Qualidade Automático
Outros vídeos desta música
00:00 / 00:00
Automático

Cifra Club Pro

Aproveite o Cifra Club com benefícios exclusivos e sem anúncios
Cifra Club Pro
Aproveite o Cifra Club com benefícios exclusivos e sem anúncios
OK