More Than A Feeling

Boston

Composição de: T. Scholz / Tom Scholz
[Introdução]


Parte 1
G|----------------------------------------------|
D|----------------------------------------------|
A|-5-0-3-2----5-0-3-2---------------------------|
E|---------3----------3-------------------------|


[Primeira parte]

I looked out this morning and the sun was …

Parte 1 de 1
G|-------------------7--------------------------|
D|---------------------7------------------------|
A|-5-0-5-0-5-3-2---5-----0-3-2---5-5-5h7-5-3-2--|
E|---------------3-------------3----------------|

G|----------------------------------------------|
D|----------------------------------------------|
A|---5-0-5-0-5-3-2------------------------------|
E|-3--------------------------------------------|

Parte 2 de 2
G|----------------------------------------------|
D|-7-5---5--7-5--------------7------------------|
A|-----7--------7-5--5-5-5-5---5-0--------------|
E|----------------------------------------------|

G|----------------------------------------------|
D|----------------------------------------------|
A|-----3-3-7-7-7-7--5-5-0-----3-3-7-7-7-7-5-5-0-|
E|-3-3--------------------3-3-------------------|


[Refrão]

It's more than a feeling...

Parte 1 de 2 ( 2x )
G|----------------------------------------------|
D|----------------------------------------------|
A|-----3-3-7--7-7-7-5-5-------3-3-7--7-7-7-5-5--|
E|-3-3------------------0-3-3------------------0|

Parte 2 de 2
G|----------------------------------------------|
D|----------------------------------------------|
A|-----3-3-7--7-7-7-5-5-------3-3-6-------------|
E|-3-3------------------0-3-3-------------------|

G|----------------------------------------------|
D|-----------------7-7h9-7-9-7-0-3--3--3---0----|
A|---7-0-9-7-9-7-0-----------------------7------|
E|-0--------------------------------------------|

G|----------------------------------------------|
D|-5-4------------------------------------------|
A|-----7-5--------------------------------------|
E|----------------------------------------------|


[Introdução 2]

Parte 01
G|----------------------------------------------|
D|-5/10--9--5-----------------------------------|
A|-------------5--3-2---------------------------|
E|--------------------3-------------------------|


[Segunda parte]

So many people have come and gone...

Parte 1 de 2
G|----------------------------------------------|
D|---------------------7------------------------|
A|-5-0-5-0-5-3-2---5-5---0-3-2---5-5-5-5h7-5-3--|
E|---------------3-------------3----------------|

G|------------7---------------------------------|
D|--------7h9-----7-----------------------------|
A|-2----5-------5---5-0-3-2---------------------|
E|---3------------------------------------------|

Parte 2 de 2
G|----------------------------------------------|
D|-7-5---5--7-5--------------7------------------|
A|-----7--------7-5--5-5-5-5---5-0--------------|
E|----------------------------------------------|

G|----------------------------------------------|
D|----------------------------------------------|
A|-----3-3-7-7-7-7--5-5-0-----3-3-7-7-7-7-5-5-0-|
E|-3-3--------------------3-3-------------------|


[Refrão 2]

It's more than a feeling...

Parte 1 de 3 ( 2x )
G|----------------------------------------------|
D|----------------------------------------------|
A|-----3-3-7--7-7-7-5-5-------3-3-7--7-7-7-5-5--|
E|-3-3------------------0-3-3------------------0|

Parte 2 de 3
G|----------------------------------------------|
D|----------------------------------------------|
A|-----3-3-7--7-7-7-5-5-------3-3-6-------------|
E|-3-3------------------0-3-3-------------------|

G|----------------------------------------------|
D|-----------------7-7h9-7-9-7-0--9-9-9-9-------|
A|---7-0-9-7-9-7-0------------------------------|
E|-0--------------------------------------------|

Parte 3 de 3
G|----------------------------------------------|
D|-7-7-7-7--5-5-5-5--4-4-4-4--7-7-7-7--7-7--7-5-|
A|----------------------------------------------|
E|----------------------------------------------|

G|----------------------------------------------|
D|----------------------------------------------|
A|-7--0-0-0-0--0-0-0-0--------------------------|
E|----------------------------------------------|


[Solo de guitarra]

Parte 1 de 2
G|----------------------------------------------|
D|-----5-------------------5-0-5--4-5-------5-4-|
A|-5-5-----------------5-5------------7-0-0-----|
E|-------3-3-2-0-2-0-0--------------------------|

G|----------------------------------------------|
D|-7----------------------4---------------------|
A|----5-----2-0-2-4-4-0-5---2-2-5---7-4---4-5---|
E|------3-3-----------------------0-----5-------|

Parte 2 de 2
G|----------------------------------------------|
D|----5-5-5-------------------------------------|
A|----------------5-----------------------------|
E|-3--------3-2-0-------------------------------|


[Terceira parte]

When I'm tired and thinking cold...

Parte 1 de 3
G|----------------------------------------------|
D|----------------------------------------------|
A|-5-5-5-5--5-5-5-5--3-3-3-2-2-2-3-3------------|
E|----------------------------------------------|

G|----------------------------------------------|
D|----------------------------------------------|
A|-5-5-0-5-0-5-3-2-3--5-5-0-5-0-2-3-2-2-0-------|
E|----------------------------------------------|

Parte 2 de 3
G|----------------------------------------------|
D|-------4h5-4----------------------------------|
A|-5-0-5-------5h7-5-3-2-3--5-5-0-5-0-2-3--2----|
E|----------------------------------------------|

Parte 3 de 3
G|----------------------------------------------|
D|-----------------------7---7---7---7----------|
A|-------2-3-5-5-5---5-5---5---5---5---5-0------|
E|-5-5-3-----------5----------------------------|

G|----------------------------------------------|
D|----------------------------------------------|
A|-----3-3-7-7-7-7--5-5-0-----3-3-7-7-7-7-5-5-0-|
E|-3-3--------------------3-3-------------------|


[Refrão 3]

It's more than a feeling...

Parte 1 de 3 
G|----------------------------------------------|
D|----------------------------------------------|
A|-----3-3-7--7-7-7-5-5-------3-3-7--7-7-7-5-5--|
E|-3-3------------------0-3-3------------------0|

G|----------------------------------------------|
D|----------------------------------------------|
A|-----3-3-7--7-7-7-5-5-------3-3-7--7-7-7-5--5-|
E|-3-3------------------0-3-3-------------------|

Parte 2 de 3
G|----------------------------------------------|
D|----------------------------------------------|
A|-----3-3-7--7-7-7-5-5-----3-3-7--7-7-7-5--3---|
E|-3-3------------------3-3---------------------|

parte 3 de 3 ( 3x + fade out )
G|----------------------------------------------|
D|----------------------------------------------|
A|-----3-3----------5-5-----3-3----------5--5---|
E|-3-3-----0--0-0-0-----3-3-----0--0-0-0--------|
Página 1 / 1

Letras e título
Acordes e artista

resetar configurações
OK