Peace Of Mind Intro

Boston

Tom: A
e|-----------------------------------------
B|-5---------------------------------------
G|-6--6--6-6---xxxx-9-9--------------------
D|-6--7--7-7---xxxx-9-9--x9--9-9-9---------
A|-4--7--7-7---xxxx-7-7--x9--7-9-7---------
E|----5--5-5---xxxx------x7--7-7-7---------


e|----------------------------------------------------------
B|----------------------------------------------------------
G|----------------------------------------------------------
D|-/6-4-----------------4----------------------4-6-7-6-4h6p4
A|------7--4--4--4-6-7----6--7-6-----4---4-6-7--------------
E|---------------------------------7------------------------
Página 1 / 1

Letras e título
Acordes e artista

resetar configurações
OK