Peace Of Mind Intro

Boston

tom: A
First tab; im only 16 but i think i got it down so dont doubt me! My dad says it sounds
right and he grew up listening to em soooo yea. Any corrections, pats on the back, insults
and such that u may have for me u can email to D*


|-------------------------------------------------|
|---4--x------------------9--9-----9--------------|
|---6--x--6--6--x-x-x-x---9--9--8--9--8-----------|
|---6--x--7--7--x-x-x-x---9--9--9--9--9-----------|
|---4--x--7--7--x-x-x-x---7--7--9--7--9-----------|
|---------5--5--x-x-x-x---------7--7--7-----------|
    D  D  D  U  D U D U   D  U  D  D  D
|------------------------------------------------------|
|------------------------------------------------------|
|------------------------------------------------------|
|--4/6--4----------------------------------------------|
|----------7--4-4-----4/6--7--9--6---7-6h7p6-----------|
|------------------7--------------------------7--9--9--|

|--------------------------------------------------------------|
|--------------------------------------------------------------|
|--------------------------------------------------------------|
|--------4--6--7--4--6--4h6p4-----------------------4----------|
|--4--7-------------------------7--4-4-----4--6---7-----6--7--6|
|--------------------------------------7-----------------------|

|---------------------------------------------------|
|---------------------------------------------------|
|---------------------------------------------------|
|-------------4--6--7--4--6--4h6p4------------------|
|--4--4--6--7------------------------7--7-----------|
|---------------------------------------------------|
Página 1 / 1

Letras e título
Acordes e artista

resetar configurações
OK