Cifra Club

Aprenda

Peace Of Mind

Boston

Tab de baixo: Principal
(intro / verse)

G----------------------------------------------------------------------------|
D--4s6-4-2-----2----------2---4----4s6-4-2-----2-----------------------------|
A----------4-----0--0-2-4-------2----------4-----0-0------------2------------|
E----------------------------------------------------4-2-0----4--------------|

G----------------------------------------------------------------------------|
D--4s6-4-2-----2----------2---4----4s6-4-2-----2---------2---4---------------|
A----------4-----0--0-2-4-------2----------4-----0-0-2-4-------2---2-4-2-----|
E----------------------------------------------------------------------------|

G------------------------------------------------------------2-2-------------|
D--2-2-2-2-2-----2---2----------------------------2--0h2-2-2-----2h4p2-------|
A------------4-2-------4-4-2-2--------------2-2-4----------------------4-----|
E------------------------------4-4-0-0-4-4-----------------------------------|


G----------------------------------------------------------------------------|
D--2-2-2-2-2-----2---2-----2h4-4-----0---0-0---------2---2------2------------|
A------------4-2-------2-4-------4-2-----------0-0-4-------2-4----4-2-4------|
E--------------------------------------------2-------------------------------|

G----------------------------------------------------------------------------|
D--2-2-2-2-2-----2---2-----2h4-4-----0---0-------------------2-2-4-----------|
A------------4-2-------2-4-------4-2---------0-0---2---2-4-4-------2---------|
E------------------------------------------2-----4---------------------------|

(pre-chorus)
G--2h4---4-2-2-1-1---------------|
D------------------4-4-----------|
A--------------------------------|
E--------------------------------|

(chorus)
G--------------------------------------------------------------------------|
D------2-----------2---4-----6-4-2-----2---------------------1h2p1---------|
A--4-----0---0-2-4-------2---------4-----0---0-----------2---------2-------|
E----------------------------------------------4-2-0---2-------------------|

G--------------------------------------------------------------------------|
D------2-----------2----4----6-4-2-----2-----------2---4-------------------|
A--4-----0---0-2-4--------2--------4-----0---0-2-4-------2---2-4-----------|
E----------------------------------------------------------------0---------|

(post-chorus)
G--------------------------------|
D--------------------------------|
A--0---0-0---0-0---0-0--16s2-----|
E--------------------------------|

(verse)
G------------------------------------------------------------2-2-------------|
D--2-2-2-2-2-----2---2----------------------------2--0h2-2-2-----2h4p2-------|
A------------4-2-------4-4-2-2--------------2-2-4----------------------4-----|
E------------------------------4-4-0-0-4-4-----------------------------------|

G--------------------------------------------------------1-4-4h6p4-1---------|
D--2-2-2-2-2-----2---2-----2h4-4-----0---0---------2---2-------------4-------|
A------------4-2-------2-4-------4-2---------0-0-4---------------------------|
E------------------------------------------2---------------------------------|

G----------------------------------------------------------------------------|
D--2-2-2-2-2-----2---2-----2h4-4-----0---0-------------------2-2-4-----------|
A------------4-2-------2-4-------4-2---------0-0---2---2-4-4-------2---------|
E------------------------------------------2-----4---------------------------|

(pre-chorus)
G--2h4---4-2-2-1-1---------------|
D------------------4-4-----------|
A--------------------------------|
E--------------------------------|

(chorus)
G--------------------------------------------------------------------------|
D------2-----------2---4-----6-4-2-----2---------------------1h2p1---------|
A--4-----0---0-2-4-------2---------4-----0---0-----------2---------2-------|
E----------------------------------------------4-2-0---2-------------------|

G--------------------------------------------------------------------------|
D------2-----------2----4----6-4-2-----2-----------2---4-------------------|
A--4-----0---0-2-4--------2--------4-----0---0-2-4-------2---2-4-----------|
E----------------------------------------------------------------0---------|

(post-chorus)
G--------------------------------|
D--------------------------------|
A--0---0-0---0-0---0-0--16s2-----|
E--------------------------------|

(bridge)
G------------------------------------------|
D------------------------------2-----------|
A--2-2-2-2-2-------0---0-4---4---0--(x3)---|
E--------------2-4-------------------------|

G------------------------------------------|
D------------------------------------------|
A--2-2-2-2-2-------0---0-------------------|
E--------------2-4-------4---4-2-2---------|

G----------------------------------------------------------------------------|
D----------------------------------------------------------------------------|
A----------2-2-4-----------2-4-2-----------2-2-4-----------2-4-5-0-----------|
E--0-0-4-4-------0---0-4-4-------0---0-4-4-------0---0-4-0-------------------|

(guitar solo)
G----------------------------------------------------------------------------|
D--0---0---------2---2-------------0---0---------h2--2-----------------------|
A----------0-0-4-------4-4-2-2-------------0-0-4-------4-4-2-2---------------|
E--------2---------------------4-0-------2---------------------4-0-----------|

G----------------------------------------------------------------------------|
D--0---0---------2---2-------------0---0------------------2-2-4--------------|
A----------0-0-4-------4-4-2-2-------------0-0-s2---2-4-4-------2------------|
E--------2---------------------4-0-------2-----------------------------------|

G--2h4---4-2-2-1-1---------------|
D------------------4-4-----------|
A--------------------------------|
E--------------------------------|

G--------------------------------------------------------------------------|
D------2-----------2---4-----6-4-2-----2-----------------------2-----------|
A--4-----0---0-2-4-------2---------4-----0---0-----------2---4---0---------|
E----------------------------------------------4-2-0---2-------------------|

G--------------------------------------------------------------------------|
D------2-----------2----4----6-4-2-----2---------------------6-4-2---------|
A--4-----0---0-2-4--------2--------4-----0---0-----------------------------|
E----------------------------------------------4-2-0---2-4-----------------|

G--------------------------------|
D--------------------------------|
A--0---0-0---0-0---0-0--16s2-----|
E--------------------------------|

(verse)
G------------------------------------------------------------2-2-------------|
D--2-2-2-2-2-----2---2----------------------------2--0h2-2-2-----2h4p2-------|
A------------4-2-------4-4-2-2--------------2-2-4----------------------4-----|
E------------------------------4-4-0-0-4-4-----------------------------------|

G--------------------------------------------------------1-4-4h6p4-1---------|
D--2-2-2-2-2-----2---2-----2h4-4-----0---0---------2---2-------------4-------|
A------------4-2-------2-4-------4-2---------0-0-4---------------------------|
E------------------------------------------2---------------------------------|

G----------------------------------------------------------------------------|
D--2-2-2-2-2-----2---2-----2h4-4-----0---0-------------------2-2-4-----------|
A------------4-2-------2-4-------4-2---------0-0---2---2-4-4-------2---------|
E------------------------------------------2-----4---------------------------|

(pre-chorus)
G--2h4---4-2-2-1-1---------------|
D------------------4-4-----------|
A--------------------------------|
E--------------------------------|

(chorus)
G--------------------------------------------------------------------------|
D------2-----------2---4-----6-4-2-----2---------------------1h2p1---------|
A--4-----0---0-2-4-------2---------4-----0---0-----------2---------2-------|
E----------------------------------------------4-2-0---2-------------------|

G--------------------------------------------------------------------------|
D------2-----------2----4----6-4-2-----2-----------2---4-------------------|
A--4-----0---0-2-4--------2--------4-----0---0-2-4-------2---2-4-----------|
E----------------------------------------------------------------0---------|

(post-chorus)
G--------------------------------|
D--------------------------------|
A--0---0-0---0-0---0-0--16s2-----|
E--------------------------------|

(bridge)
G------------------------------------------|
D------------------------------2-----------|
A--2-2-2-2-2-------0---0-4---4---0--(x3)---|
E--------------2-4-------------------------|

G--------------------------------------------------------------------------|
D--------------------------------------------------------------------------|
A--2-2-2-2-2-------0---0-4---4-2---0---0-4---4-2---0---0-4---4-2-----------|
E--------------2-4---------------0---------------0---------------0---------|

G-------------------------4h6--4--2--2h4-----------------------------------|
D--------------------------------------------------------------------------|
A--0---0-4---4-2---0---0---------------------------------------------------|
E----------------0---------------------------------------------------------|

(outro) (Play last line through fade)
G--------------------------------------------------------------------------|
D--4s6-4-2-----2----------2---4----4s6-4-2-----2---------------------------|
A----------4-----0--0-2-4-------2----------4-----0-0------------2----------|
E----------------------------------------------------4-2-0----4------------|

G----------------------------------------------------------------------------|
D--2h4-2-------2----------2---4----4s6-4-2-----2----------------------2------|
A--------2-4-----0--0-2-4-------2----------4-----0-0------------2---4---0----|
E----------------------------------------------------4-2-0----4--------------|

G----------------------------------------------------------------------------|
D------2-----------------------2-------2---------------------4s6-4-2---------|
A--4-----0---0-----------2---4---0-4-----0---0-----------2-------------------|
E--------------4-2-0---4-----------------------4-2-0-0-4---------------------|

G----------------------------------------------------------------------------|
D------2-----------2-2-4-----4s6-4-2-----2-----------------------------------|
A--4-----0---0-2-4-------2-----------4-----0---0-----------2-----------------|
E------------------------------------------------4-2-0---4-------------------|

G----------------------------------------------------------------------------|
D--4s6-4-2-----2---------------------1-2-------2-----------------------------|
A----------4-----0---0-----------2-------0-4-4---0---0-----------2-----------|
E----------------------4-2-0---4-----------------------4-2-0---4-------------|

G----------------------------------------------------------------------------|
D--4s6-4-2-----2-----------2-2-4-----4s6-4-2-----4---------------------------|
A----------4-----0---0-2-4-------2-----------2-----0---0-----------2---------|
E--------------------------------------------------------4-2-0---4-----------|
Composição de T. Scholz / Tom Scholz
428 exibições

0 comentários

Mostrar mais comentários

Conseguiu tocar?

0 Tocaram 0 Ainda não

Grave um vídeo tocando Peace Of Mind e mande pra gente!

00:00 / 00:00
outros vídeos desta música
repetir qualidade Automático
Outros vídeos desta música
00:00 / 00:00
Automático

Cifra Club Pro

Aproveite o Cifra Club com benefícios exclusivos e sem anúncios
7 dias grátis
Cifra Club Pro
Aproveite o Cifra Club com benefícios exclusivos e sem anúncios
7 dias grátis
OK