Cifra Club

Rock and Roll Band

Boston

Tab de baixo: Principal
(intro)

|-----------------------------------------------------------|
|--------7/9-7-------7899-----------------------------------|
|------------------------7899---------------6666666677889---|
|-12/5---------7--------------7-7-7-7-7-7-7---------------0-|

(verses)                      
|---------------------------------|-------------------------------|
|o----------2--------------------o|---------2---------------------|
|o----------------0--0-3-4-------o|---------------0--0-3-4---5--6-|
|--0--0-3-4---3-4----------0-3-4--|-0--0-3-4--3-4-----------5--5--|
(3x)

|---------------------------------|-----------------------------------------------|
|o----------2--------------------o|-------2--------------4------------------------|
|o----------------0--0-3-4-------o|------------------1-4---6-4-0--0-0-0-0-0-0-0-2-|
|--0--0-3-4---3-4----------0-3-4--|-0-3-4---3-4-2--2------------------------------|
(2x)

(refrão 1)
|----------------|---------------|----------------|---------------|
|----------------|-------------2-|----------6-4---|---------------|
|-4-4---4--2-42--|-------7---2---|-4-4---4-----64-|-------------6-|
|-----4--------4-|5-5--5---5-----|-----4----------|-5-5-x-5--5-7--|

|------------------|---------------|--------------|----------------|
|-----6-6-64-------|---------------|--------------|----------------|
|-7-7--------7-7-9-|-9-7-6---------|----------6-7-|-7-4----------7-|
|------------------|-------2-3-4-5-|-5-5-7--7-----|-----7-4-7-7h9--|

(verse)

(refrão 2)
|----------------|---------------|----------------|---------------|
|----------------|-------------2-|----------6-4---|---------------|
|-4-4---4--2-42--|-------7---2---|-4-4---4-----64-|-------------6-|
|-----4--------4-|5-5--5---5-----|-----4----------|-5-5-x-5--5-7--|

|------------------|---------------|--------------|---------------|
|-----6-6-64-------|---------------|--------------|---------------|
|-7-7--------7-7-9-|-9-7-6---------|--------------|---------------|
|------------------|-------2-3-4-5-|-5-5-7--4-2-0-|-0-4-4-5-5-6-7-|

|---------------6-|
|-----6-6-7-7-9---|
|-7-7-------------|
|-----------------|

(guitar solo)
|---------------|---------------|---------------|---------------|
|-4-4--4------4-|-4-----------2-|-4-4--4--------|-------------2-|
|-----4--22-4---|---1-1-2-2-4---|-----4--44-2---|---1-1-2-2-4---|
|---------------|---------------|-------------2-|-2-------------|

|---------------|---------------|----------------|-----------------|
|-4-4--4------4-|-4-2-2-1-1-----|----------------|---------9-------|
|-----4--22-4---|-----------4-2-|----4-4-5-5-6-7-|-----6-6---------|
|---------------|---------------|-5--------------|-7-7-------4-2-0-|

(verse again)

(refrão 3)
|----------------|---------------|----------------|---------------|
|----------------|-------------2-|----------------|--------/6-96--|
|-4-4---4--2-42--|-------7---2---|-4-4---4--6-7---|---/7--------9-|
|-----4--------4-|5-5--5---5-----|-----4--------4-|5-5---5--------|

|----------------|----------------|--------------|---------------|
|----------------|------------6-7-|-7-8-9--9-6---|-------------4-|
|-7--4---7-4---9-|-9---7-9-10-----|------------7-|-7-4---7-4-----|
|------7-----7---|---9------------|--------------|-----7-----7---|

|---------------|----------------|--------------|
|-4-1-----------|----------------|-----------2--|
|-----4---------|-----2----2-----|--------------|
|-------2-3-4-5-|-5------------3-|--3--5--5-----|
00:00 / 00:00
Outros vídeos desta música
Repetir
Outros vídeos desta música
Compositor não encontrado.
161 exibições

0 comentários

Ver todos os comentários

Conseguiu tocar?

0 Tocaram 0 Ainda não

Grave um vídeo tocando Rock and Roll Band e nos envie!

Entre para oCifra Club PRO

Tenha acesso a benefícios exclusivos no App e no Site

  • Chega de anúncios

  • Prioridade de compra em lançamentos

  • Mais recursos no app do Afinador

  • Atendimento Prioritário

  • Descontos nos produtos Cifra Club

  • Ajude a produzir mais conteúdo

00:00 / 00:00

Cifra Club Pro

Aproveite o Cifra Club com benefícios exclusivos e sem anúncios
Cifra Club Pro
Aproveite o Cifra Club com benefícios exclusivos e sem anúncios
OK