Cifra Club

I Feel So 0

Box Car Racer

Cifra: Principal (violão e guitarra)
Tom: A
#This file is the author's own work and represents their interpretation of the#
#song. You may only use this file for private study, scholarship, or research.#


Transcribed by: paul 
Email: *

(im tabbing the whole album) the piano intro should be accurate
(bloody hard to tab though)
just figure out the palm m uting in places!enjoy

-|-------7-----8----------------------|------8-------7-------------|---------
-|-8---6----7----------12--7----10----|--8-----7----------!9!---7-8|---------
-|-x-6------x----9--------------x---7-|--7-7---x--5----9------7-x-7|---------
-|-5--------4----x--9--------4--7---x-|4/5-----4-------x-9----x-4-5|---------
-|---------------7------------------5-|----------------7------5----|---------
-|------------------------------------|----------------------------|---------
                                                     !either9or8!(cant remember)

-|-----------------------|--------|-----|--------------|--------|------------
-|-----------------------|--------|-0---|----------0---|--------|------------
-|-----4---5--0--4-----2-|--------|-0---|-12-------0---|--------|------------
-|-5-5---4-4--2--2---4-4-|--------|-0---|--x-------0---|-/////--|------------
-|-----------------------|--------|-----|-10-----------|-/////--|------------
-|-----------------------|--3-----|---3-|------------3-|-//////-|------------
    guitar intro +verse        very wide bends on the 3 resultinginfeedback
-|-----------------------|---|-----------------|-----------------------------
-|-----------------------|---|-----------------|-----------------------------
------------------7777---|-4-|-----------------|-----------------------------
-|---555----555---xxxx---|-x-|-55--44--22--44--|-----------------------------
-|---555----555---5555---|-2-|-55--44--22--44--|-----------------------------
-|-2h333--2h333----------|---|-33--22--00--22--|-----------------------------
   (either 2 or 0)              pre chorus heavy palm muted

-|--------------------------|--|-------|------|------------------|-----------
-|--------------------------|--|-------|------|------------------|-----------
-|------44444--66666--44444-|--|--7777-|------|-------------7777-|-----------
-|22222-44444--66666--44444-|--|--7777-|------|---555---555-xxxx-|-----------
-|22222-22222--44444--22222-|--|--5555-|------|---555---555-5555-|-----------
-|00000---------------------|3-|-------|------|-2h333-2h333------|-----------
     chorus                     gtr 2 random pickslides

-|---------------------------------------------|-----------------------------
-|---------------------------------------------|-----------------------------
---444444444444444444444---44444444444444444444|-----------------------------
-|-xxxxxxxxxxxxxxxxxxxxx---xxxxxxxxxxxxxxxxxxxx|-----------------------------
-|-222222222222222222222---22222222222222222222|-----------------------------
-|---------------------------------------------|-----------------------------
                  middle octave part
exibições 3.933
Acordes para:

    0 comentários

    mostrar mais comentários

    Conseguiu tocar?

    0 tocaram 0 ainda não

    Grave um vídeo tocando I Feel So 0 e mande pra gente!

    00:00 / 00:00
    outros vídeos desta música
    repetir qualidade Automático
    Outros vídeos desta música
    00:00 / 00:00
    Automático
    OK