Cifra Club

I Feel So

Box Car Racer

Tab de baixo: Principal
E,A,D,G

Intro 1(4x)
G:--------------------
D:--------------------
A:-------------5-5-5-5
E:-0-3-3-0-3-3--------

Intro 2(4x)
G:--------------------
D:--------------------
A:-------------2-2-2-2
E:-0-3-3-0-3-3--------

Intro 1
Intro 2
Intro 1(8x)

Verse (Wish I was young/Wish I had power)(2x)
G:--------------------
D:--------------------
A:--------------------
E:-3-3--2-2--0-0--2-2-

Chorus
G:-------------------------------------------
D:-------------------------------------------
A:-7-7-7-7-7--6-6-6-6-6--4-4-4-4-4--6-6-6-6-6
E:-------------------------------------------

Intro 1
Verse
Chorus
Intro 1
Intro 2
Intro 1
Intro 2

Bridge(3x)
G:------------------------------
D:------------------------------
A:-2-2-2-2-2-2-2-2-2-2-2-2-2----
E:------------------------------

Chorus(2x)

End With
G:----------
D:----------
A:-7--------
E:----------


_______________________________________________________
Contribuição: .:§|PePaCo|§:.(pepaco@terra.com.br)
exibições 9.956

0 comentários

mostrar mais comentários

Conseguiu tocar?

2 tocaram 0 ainda não

Grave um vídeo tocando I Feel So e mande pra gente!

00:00 / 00:00
outros vídeos desta música
repetir qualidade Automático
Outros vídeos desta música
00:00 / 00:00
Automático
OK