Cifra Club

The End With You

Box Car Racer

Cifra: Principal (violão e guitarra)
Tom: A
[Introdução]

E|----------------------------------|
B|----------------------------------|
G|-6-6-6-6-6-6-6-6-6-6-6-6-6-6-6-6--|
D|-x-x-x-x-x-x-x-x-x-x-x-x-x-x-x-x--|
A|-4-4-4-4-4-4-4-4-4-4-4-4-4-4-4-4--|
E|----------------------------------|

                                  What the Fuck?

E|-------------------------------------|
B|-------------------------------------|
G|----------------------------------6--|
D|-4-4--4s6s7--7-7-7-7-7-7-7---6s7--6--|    (4x)
A|-4-4--4s6s7--7-7-7-7-7-7-7---6s7--4--|
E|-2-2--2s4s5--5-5-5-5-5-5-5---4s5-----|


[Verso 01]

E|----------------|-----------------------|
B|----------------|-----------------------|
G|----------------|-----------------------|
D|-4-4--4s6s7--7--|-----------7-7---------|
A|-4-4--4s6s7--7--|--4-4-4----5-5---4-4---|
E|-2-2--2s4s5--5--|--2-2-2----------2-2---|
                   P.M ..................

E|------------------|---------------------|
B|------------------|---------------------|
G|------------------|---------------------|
D|------------------|-----------7-7-------|
A|-7-7-7-7-7-7-7-7--|--4-4-4----5-5---4-4-|
E|-5-5-5-5-5-5-5-5--|--2-2-2----------2-2-|
  P.M .....................................


    A5                   F#5 D5 F#5
Our days are running thin
    A5                      F#5 D5 F#5
Our hopes will start to fall
               A5
I can feel the world collapse
       F#5 D F#5 A5          F#5 D F#5
around me      from within
    A5                    F#5 D F#5
The letters keep coming by
          A5                     F#5 D F#5
to let us know when time will die
    A5
And please god will you forgive
F#5 D F#5     A                   F#5 D F#5
us      and give us one more try


E|----------------------------------|
B|----------------------------------|
G|-6-6-6-6-6-6-6-6-6-6-6-6-6-6-6-6--|
D|-x-x-x-x-x-x-x-x-x-x-x-x-x-x-x-x--|
A|-4-4-4-4-4-4-4-4-4-4-4-4-4-4-4-4--|
E|----------------------------------|


[Refrão]

E|-----------------------------------------------|
B|-----------------------------------------------|
G|---------------------------------------7-7-7---|
D|-7-7-7-7-7-7---6-6-6-6-6-6---4-4-4-4---x-x-x---|
A|-7-7-7-7-7-7---7-7-7-7-7-7---4-4-4-4---5-5-5---|
E|-5-5-5-5-5-5---4-4-4-4-4-4---2-2-2-2-----------|

A
If you will then we'll
      E/G#          F#5 D5
go as fast as we go far
A
Maybe we'll be forgotten
         E/G#           F#5 D5
when the world is torn apart


[Introdução]

E|-------------------------------------|
B|-------------------------------------|
G|----------------------------------6--|
D|-4-4--4s6s7--7-7-7-7-7-7-7---6s7--6--|    (2x)
A|-4-4--4s6s7--7-7-7-7-7-7-7---6s7--4--|
E|-2-2--2s4s5--5-5-5-5-5-5-5---4s5-----|


[Verso 02]

E|----------------|-----------------------|
B|----------------|-----------------------|
G|----------------|-----------------------|
D|-4-4--4s6s7--7--|-----------7-7---------|
A|-4-4--4s6s7--7--|--4-4-4----5-5---4-4---|
E|-2-2--2s4s5--5--|--2-2-2----------2-2---|
                   P.M ..................

E|------------------|---------------------|
B|------------------|---------------------|
G|------------------|---------------------|
D|------------------|-----------7-7-------|
A|-7-7-7-7-7-7-7-7--|--4-4-4----5-5---4-4-|
E|-5-5-5-5-5-5-5-5--|--2-2-2----------2-2-|
  P.M .....................................

     A5                    F#5 D5 F#5
I've been up all night long
         A5                       F#5 D5 F#5
Counting days that all went wrong
  A5                   F#5 D5 F#5
I opened my bedroom window
  A5                     F#5 D5 F#5
I wish this pain was gone
      A5                 F#5 D5 F#5
There are no useful drugs
     A5                    F#5 D5 F#5
to escape from feeling numb
    A5                     F#5 D5 F#5
I remember an amazing birthday
    A5                F#5  D5 F#5
I remember when i was young


E|----------------------------------|
B|----------------------------------|
G|-6-6-6-6-6-6-6-6-6-6-6-6-6-6-6-6--|
D|-x-x-x-x-x-x-x-x-x-x-x-x-x-x-x-x--|
A|-4-4-4-4-4-4-4-4-4-4-4-4-4-4-4-4--|
E|----------------------------------|


[Refrão]

E|-----------------------------------------------|
B|-----------------------------------------------|
G|---------------------------------------7-7-7---|
D|-7-7-7-7-7-7---6-6-6-6-6-6---4-4-4-4---x-x-x---|
A|-7-7-7-7-7-7---7-7-7-7-7-7---4-4-4-4---5-5-5---|
E|-5-5-5-5-5-5---4-4-4-4-4-4---2-2-2-2-----------|

A
If you will then we'll
      E/G#          F#5 D5
go as fast as we go far
A
Maybe we'll be forgotten
         E/G#           F#5 D5
when the world is torn apart

          A
Cause the sun won't be so blinding
        E/G#               F#5  D5
And the rains will finally come
    A
The ashes will slowly pile up
        E/G#                F#5  D5
Just to prove we're finally done


[Interlúdio]

E|-----------------------------|
B|-----------------------------|
G|---------------6-6-6-7--4----|
D|-4-4-4s6--7----x-x-x-x--x----| (6x)
A|-x-x-x-x--x----4-4-4s5--2----|
E|-2-2-2s4--5------------------|



[Refrão]

E|-----------------------------------------------|
B|-----------------------------------------------|
G|---------------------------------------7-7-7---|
D|-7-7-7-7-7-7---6-6-6-6-6-6---4-4-4-4---x-x-x---|
A|-7-7-7-7-7-7---7-7-7-7-7-7---4-4-4-4---5-5-5---|
E|-5-5-5-5-5-5---4-4-4-4-4-4---2-2-2-2-----------|

A
If you will then we'll
      E/G#          F#5 D5
go as fast as we go far
A
Maybe we'll be forgotten
         E/G#           F#5 D5
when the world is torn apart

          A
Cause the sun won't be so blinding
        E/G#               F#5  D5
And the rains will finally come
    A
The ashes will slowly pile up
        E/G#                F#5  D5
Just to prove we're finally done


[Final]

E|----------------------------------|
B|----------------------------------|
G|-6-6-6-6-6-6-6-6-6-6-6-6-6-6-6-6--|
D|-x-x-x-x-x-x-x-x-x-x-x-x-x-x-x-x--|
A|-4-4-4-4-4-4-4-4-4-4-4-4-4-4-4-4--|
E|----------------------------------|

                                  What the Fuck?
exibições 8.401
Acordes para:
    Composição: Tom DeLonge / Travis Barker Colaboração e revisão:
    • Renan Luiz

    0 comentários

    mostrar mais comentários

    Conseguiu tocar?

    1 tocaram 0 ainda não

    Grave um vídeo tocando The End With You e mande pra gente!

    00:00 / 00:00
    outros vídeos desta música
    repetir qualidade Automático
    Outros vídeos desta música
    00:00 / 00:00
    Automático
    OK