Cifra Club

Family

Boyce Avenue

Cifra: Principal (violão e guitarra)
tom: C (forma dos acordes no tom de G) Capotraste na 5ª casa
Intro: Em C G D (x2)

E|-----------------------------|
B|-----------------------------|
G|-----0---0----0-0------------|
D|-2h4-----2----0---4----------| (x2)
A|-2-------3--------5----------|
E|-0------------3--------------|

Primeira Parte: Dedilhado das notas

E|-----------------------------|
B|-----------------------------|
G|-----0--------0-0------------|
D|-2h4-----2----0----4---------| (x2)
A|-2-------3---------5---------|
E|-0------------3--------------|

Em  C
    After years of deception
G   D
    And your broken roads
Em  C
    There will be no rejection
G   D
    From my heart to yours

E|-----------------------------|
B|------------3----------------|
G|-----0----0---0-0----0-------|
D|-2h4----2-----0----4---------|
A|-2------3----------5---5-----|
E|-0------------3--------------|

E|-----------------------------|
B|------------3----------------|
G|-----0----0---0-0----0-------|
D|-2h4----3-----0----4------2--|
A|-2------2----------5---5--3--|
E|-0------------3--------------|

Em            C
   So show me hope
             G
And show me fear
D
From your heart that's beating
Em              C             G
   You're not alone in your tears
D                            C
Cause we're lovers fleeting
And the world is sleeping

Refrão:
G               C9
  I'll be, I'll be
Your family
Em7                    C9
  When your times get hard
G                  C9
And I'll see, I'll see
You next to me
Em7                   C9
  When the road gets dark

E|-------------|
B|-----0h1p0---|
G|-0h2---------|
D|-------------|
A|-------------|
E|-------------|

Segunda Parte: Continua com o dedilhado
Em  C
    And my heart is the exception
G   D
    To the pain you know
Em  C
    So don't fear your reflection
G   D
    When I hold you close

Em            C
    So show me hope
             G
And show me fear
D
From your heart that's beating
Em              C             G
    You're not alone in your tears
D                            C
Cause we're lovers fleeting
And the world is sleeping
Em  D    G
   This promise I'm keeping

E|-------------|
B|-0--3--0-----|
G|-0--2--0-----|
D|-2--0--0-----|
A|-2--0--------|
E|-0-----3-----|

Refrão:

G               C9
  I'll be, I'll be
Your family
Em7                    C9
  When your times get hard
G                  C9
And I'll see, I'll see
You next to me
Em7                   C9
  When the road gets dark

G
  So dream on
       C9
And begin
Your days with laughter
Em7                      C9
  Cause your story will end
Happy ever after

G               C9
  I'll be, I'll be
Your family
Em7                    C9
  When your times get hard

Ponte:
Em  D
    So if they pull you under
Bm  C
    And they steal your wonder
Em  D                         C    D
    I'll be the hand you can hold
Em  D
    And when the lights are fading
Bm  C
    I hope you're ready, yeah, to love
Em  D
    In your soul
        Bm          A4(6)/F#
And the will to let go
In all

  A4(6)/F#
E|-------------|
B|-3-----------|
G|-2-----------|
D|-0-----------|
A|-------------|
E|-3-----------|

Refrão:
G                   G
Cause I'll be, I'll be
Your family
Em7                    C9
  When your times get hard
G                  C9
And I'll see, I'll see
You next to me
Em              C9
When your road, when your road gets dark

G
  So dream on
       C9
And begin
Your days with laughter
Em7                      C9
  Cause your story will end
Happy ever after

G               C9
  I'll be, I'll be
Your family
Em7                    C9
  When your times get hard

Final:
G  C9
      I'll be, I'll be
Em7 C9
       Your family
G  C9
      I'll be, I'll be
Em7 C9
       Your family

G
  So dream on
       C9
And begin
Your days with laughter
Em7                      C9
  Cause your story will end
Happy ever after...........
.............
00:00 / 00:00
Outros vídeos desta música
Repetir
Outros vídeos desta música
Composição de Boyce Avenue
Colaboração e revisão:
  • Rubem Gama
624 exibições
    • ½ Tom
    • A
    • Bb
    • B
    • C
    • Db
    • D
    • Eb
    • E
    • F
    • F#
    • G
    • Ab
  • Adicionar à lista

    0 comentários

    Ver todos os comentários

    Conseguiu tocar?

    0 Tocaram 0 Ainda não

    Grave um vídeo tocando Family e nos envie!

    Entre para oCifra Club PRO

    Tenha acesso a benefícios exclusivos no App e no Site

    • Chega de anúncios

    • Prioridade de compra em lançamentos

    • Mais recursos no app do Afinador

    • Atendimento Prioritário

    • Descontos nos produtos Cifra Club

    • Ajude a produzir mais conteúdo

    00:00 / 00:00

    Cifra Club Pro

    Aproveite o Cifra Club com benefícios exclusivos e sem anúncios
    Cifra Club Pro
    Aproveite o Cifra Club com benefícios exclusivos e sem anúncios
    OK