Auburn

Brahny

tom: G
[Intro] Am  D  G  Em

E|-----------------------------------3h5-3-------|
B|---------8-10-----8-10-8-----------------3h5-3-|
G|----5-7h9---------------7-9-7------------------|
D|-----------------------------------------------|
A|-----------------------------------------------|
E|-----------------------------------------------|

E|-5--7------------------------------------------|
B|-----5h7-7-8-7---5-7p5-3--5-3------------------|
G|-----------------------------4-----2--4-2-4--2-|
D|-----------------------------------2--4-2-4--2-|
A|---------------------------------0-------------|
E|-----------------------------------------------|

[Primeira Parte]

Am                 D
  Melted sand it’s auburn
                  G
Slipstream air in summer
                  Em
Stop motioned and stuttered

Am               D
  Calmly rippled daybreak
                          G
Reflects pink through the whole day
                Em
Sundrops pupils dilate

[Ponte]

  Am    D                G         Em
E|-5--7------------------------------------------|
B|-----5h7-7-8-7---5-7p5-3--5-3------------------|
G|-----------------------------4-----2--4-2-4--2-|
D|-----------------------------------2--4-2-4--2-|
A|---------------------------------0-------------|
E|-----------------------------------------------|

[Refrão]

Am                          D
  Gonna make this something perfect
                           G
Tell all your friends it’s worth it
                    Em
Fuck all their fake endorsements

Am                          D
  Together we can watch the world end
                     G
Silver screen on the weekend
                    Em
Thick smoke out the wasteland

Am             D
  All I see is auburn
           G
Comforting eachother
                Em
Warmer than the southern
              Am   D  G  Em
All I have to offer

[Segunda Parte]

Am                D
  Glassy eyes are stronger
                 G
Glistening under headlights
                     Em
Piercing through the midnight

Am                   D
  Breath caught by the frostbite
              G
Chilly on the roadside
              Em
Riding on the farside

[Refrão]

Am                          D
  Gonna make this something perfect
                           G
Tell all your friends it’s worth it
                    Em
Fuck all their fake endorsements

Am                          D
  Together we can watch the world end
                     G
Silver screen on the weekend
                    Em
Thick smoke out the wasteland

Am             D
  All I see is auburn
           G
Comforting eachother
                Em
Warmer than the southern
              Am   D  G  Em
All I have to offer

[Terceira Parte]

Am                     D
  Your auburn eyes are laced with these emeralds
G                       Em
Frozen by the distance, sharpened by our visions
Am                    D
  Our ignorance means nothing in our castle
G                     Em
Saturated brilliance, shinin on the skyline

[Refrão]

Am                          D
  Gonna make this something perfect
                           G
Tell all your friends it’s worth it
                    Em
Fuck all their fake endorsements

Am                          D
  Together we can watch the world end
                     G
Silver screen on the weekend
                    Em
Thick smoke out the wasteland

Am             D
  All I see is auburn
           G
Comforting eachother
                Em
Warmer than the southern
              Am   D  G  Em
All I have to offer

Am             D
  All I see is auburn
           G
Comforting eachother
                Em
Warmer than the southern
              Am   D  G  Em
All I have to offer

  Am    D                G         Em
E|-5--7------------------------------------------|
B|-----5h7-7-8-7---5-7p5-3--5-3------------------|
G|-----------------------------4-----2--4-2-4--2-|
D|-----------------------------------2--4-2-4--2-|
A|---------------------------------0-------------|
E|-----------------------------------------------|
Página 1 / 1

Letras e título
Acordes e artista

resetar configurações
OK