Cifra Club

Eu Vou

Branca de Neve e os Sete Anões

Cifra: Principal (violão e guitarra)
Tom: C
E|--------------------5----------|
B|----6---5------6-8-----8--6--5-|
G|--5-------7--------------------|
D|-------------------------------|

Eu vou, eu vou, para casa agora eu vou

E|--------------------5----------|
B|----6---5------6-8-----8--6--5-|
G|--5-------7--------------------|
D|-------------------------------|

Eu vou, eu vou, para casa agora eu vou

E|-------------------------------|
B|--------5--6-------------------|
G|--5-7----------5--------------|
D|-------------------------------|
Parara-tim-bum
E|-------------------------------|
B|--------5--6-------------------|
G|--5-7----------7---------------|
D|-------------------------------|

Parara tibum

E|-------------------------------|
B|---10--8---------6---5---------|
G|-------------------------------|
D|-------------------------------|

Eu vou, eu vou
exibições 1.252
Acordes para:
    Composição: Frank Churchill Colaboração e revisão:
    • João Rambow

    0 comentários

    mostrar mais comentários

    Conseguiu tocar?

    0 tocaram 1 ainda não

    Grave um vídeo tocando Eu Vou e mande pra gente!

    00:00 / 00:00
    outros vídeos desta música
    repetir qualidade Automático
    Outros vídeos desta música
    00:00 / 00:00
    Automático
    OK