Cifra Club

Brasileirinha

Brasil

Cifra: Principal
exibições 154.889
Tom: D
E|-9-9-9-9-0-5-9-0-5-9-0-5-9-0-5-9-0-5-8-0-5-8-0-5-8-0-5-9-0-5-9-0-5-9-9-9-9-9-8-7-5
B|----------------------------------------------------------------------------------
G|----------------------------------------------------------------------------------
D|----------------------------------------------------------------------------------
A|----------------------------------------------------------------------------------
E|----------------------------------------------------------------------------------

E|-5-0-1-2-3-2-1-0-2-3-4-3-2-0-2-3-4-3-2-0-5-4-2-0-5-4-2-0-5-4-2-0------------------
B|-----------------------------------------------------------------1-0-------------1
G|---------------------------------------------------------------------2-0-------2--
D|-------------------------------------------------------------------------4-0-4----
A|----------------------------------------------------------------------------------
E|----------------------------------------------------------------------------------

E|-0-2-4-2-0---0-2-0-------0-2-3-4-0-2-3-4-0-1-2-3-4-3-2-0-5-0-2-4-5-0-2-4-5-4-2-0-4
B|-----------2-------2-1-0----------------------------------------------------------
G|----------------------------------------------------------------------------------
D|----------------------------------------------------------------------------------
A|----------------------------------------------------------------------------------
E|----------------------------------------------------------------------------------

E|-0-2-3-4-2-0-2-0------------------------------------------------------------------
B|------------------1-0-------------------------------------------------------------
G|----------------------2-0---------------------------------------------------------
D|----------------------------------------------------------------------------------
A|----------------------------------------------------------------------------------
E|----------------------------------------------------------------------------------

(2a. parte)
       (3x)
E|--------------|-1-0---0-1-0---0-1-0---------------0-1-0-1-0-1-0-3-2-1-0-----------
B|--------------|-----1-------1-------1-----------1---------------------------------
G|---0-2-3-2-0--|-----------------------2-------2-----------------------------------
D|-0------------|-------------------------4-0-4-------------------------------------
A|--------------|-------------------------------------------------------------------
E|--------------|-------------------------------------------------------------------

  (1a. vez)
E|-5-4-3-2-1-0--1-1-1-1-10---------------0-1-0-1-0-3--2-1-0---
B|-3-3-3-2-1-0-------------1-----------1----------------------
G|---------------------------2-------2------------------------
D|-----------------------------4-0-4--------------------------
A|------------------------------------------------------------
E|------------------------------------------------------------

(voltar ao começo da 2a. parte)
  (2a. vez)
E|---1--1---1---1---3---------------------------1-0---
B|----------------------------------------------------
G|-5--5---5---5---5-----0-2-3-2-0-----0-2-0---2-----0-
D|--------------------0-----------3-2-------4---------
A|----------------------------------------------------
E|----------------------------------------------------

(repete 1a. parte)

(para terminar)

    (4x)
E|-5-4-2-0-|
B|---------|
G|---------|
D|---------|
A|---------|
E|---------|
Acordes para:
    Composição: William SlColaboração e revisão:
    • Gustavo Lopes
    • william jardim

    0 comentários

      mostrar mais comentários

      Conseguiu tocar?

      19tocaram2ainda não

      Grave um vídeo tocando Brasileirinha e mande pra gente!

      00:00 / 00:00
      outros vídeos desta música
      repetirqualidadeautomática
      Outro vídeos desta música
        00:00 / 00:00
        automática
        OK