Cifra Club

Aprenda

Portugal

Brenno Reis & Marco Viola

Cifra: Principal (violão e guitarra)
Tom: A
Intro: Bm D Bm D

Solo:

E|----------------------------------------------------|
B|------------------------------------------------10-7|
G|------7-7/9-7------7-7/9-7------7-7/9-7-------7-----|
D|--7h9--------9--7h9-------9--7h9-------9--7h9-------|
A|----------------------------------------------------|
E|----------------------------------------------------|

E|----------------------------------------------------|
B|----------------------------------------------------|
G|------7-7/9-7------7-7/9-7------7-7/9-7-9-----------|
D|--7h9--------9--7h9-------9--7h9----------9---------|
A|----------------------------------------------------|
E|----------------------------------------------------|

Bm
Você sonhava em estudar em Portugal
D
Eu te apoiei falei que ia ser legal
E                                G
Mas deu medo quando eu vi você se afastar de mim

Bm
Fiquei aqui esperando você voltar
D
Eu vi os anos passando bem devagar
E                                    G
Guardei meus beijos e desejos pra te entregar

Bm
Depois de 5 anos você me telefonou
D
Pra me contar que sem querer se apaixonou
E                                          G
Pediu desculpas e falou pra não te esperar

Bm
A minha sorte é que ninguém morre de amor
D
Mas eu preciso de um último favor
E                                        G
É coisa rápida eu não quero te incomodar

D                              E                Bm  D   A  G
-Eu estou em Lisboa no aeroporto e não sei voltar


[Repete Tudo]
Colaboração e revisão:
30.915 exibições
    • ½ Tom
    • A
    • Bb
    • B
    • C
    • Db
    • D
    • Eb
    • E
    • F
    • F#
    • G
    • Ab
  • Adicionar à lista

    0 comentários

    Mostrar mais comentários
    00:00 / 00:00
    outros vídeos desta música
    repetir qualidade Automático
    Outros vídeos desta música
    00:00 / 00:00
    Automático
    OK