Cifra Club

Shes Mine

Brett Dennen

Cifra: Principal (violão e guitarra)
tom: G
Tabbed By: Nick Monte

Intro/Verse

E--------7--7------7-----7------7--7-----7------7----|
A--------8--8------8-----8------8--8-----8------8----|
D----------------------------------------------------|
G----------------------------------------------------|
B---10---------10-----10-----9--------9-----9--------|
E----------------------------------------------------|

 -----7---7------7------7------------------------------------|
 -----8---8------8------8--------10--10------10-------10-----|
 -----9---9------9------9--------11--11------11-------11-----|
 -----9---9------9------9--------12--12------12-------12-----|
 --7----------7------7-----------12--12------12-------12-----|
 -----------------------------10---------10-------10---------|

0:22 Seconds (Change Up)

E-----------------7-----7---7-----------|
A--7----10--------8-----8---8-----------|
D--9----11------------------9-----------|
G--10---12------------------9-----------|
B-------------10-----9------7-----------|
E--8----10------------------------------|

"Because she's mine.."


E--------7--7------7-----7------7--7-----7------7----|
A--------8--8------8-----8------8--8-----8------8----|
D----------------------------------------------------|
G----------------------------------------------------|
B---10---------10-----10-----9--------9-----9--------|
E----------------------------------------------------|

 -----7---7------7------7------------------------------------|
 -----8---8------8------8--------10--10------10-------10-----|
 -----9---9------9------9--------11--11------11-------11-----|
 -----9---9------9------9--------12--12------12-------12-----|
 --7----------7------7-----------12--12------12-------12-----|
 -----------------------------10---------10-------10---------|
00:00 / 00:00
Outros vídeos desta música
Repetir
Outros vídeos desta música
Compositor não encontrado.
1.127 exibições
    • ½ Tom
    • A
    • Bb
    • B
    • C
    • Db
    • D
    • Eb
    • E
    • F
    • F#
    • G
    • Ab
  • Adicionar à lista

    0 comentários

    Ver todos os comentários

    Conseguiu tocar?

    0 Tocaram 0 Ainda não

    Grave um vídeo tocando Shes Mine e nos envie!

    Entre para oCifra Club PRO

    Tenha acesso a benefícios exclusivos no App e no Site

    • Chega de anúncios

    • Prioridade de compra em lançamentos

    • Mais recursos no app do Afinador

    • Atendimento Prioritário

    • Descontos nos produtos Cifra Club

    • Ajude a produzir mais conteúdo

    00:00 / 00:00

    Cifra Club Pro

    Aproveite o Cifra Club com benefícios exclusivos e sem anúncios
    Cifra Club Pro
    Aproveite o Cifra Club com benefícios exclusivos e sem anúncios
    OK