Cifra Club

Fire Song

Brian Jonestown Massacre

Cifra: Principal (violão e guitarra)
Tom: D
THE FIRE SONG

e-----------------------------------------------------|
B-----------------------------------------------------|
G-----------------------------------------------------|
D-----------------------------------------------------|
A--4---4---4-----9------4---4---4-----9---------------|
E-5-5-5-5-5-5--10-10---5-5-5-5-5-5--10-10-------------|


Solo thing:
e-5-5-3-5-5-3-5-5-3-------3-5-5-3-5-5-3-5-5-3---3-5-3-|
B-------------------5-3-5---------------------5-------|
G-----------------------------------------------------|
D-----------------------------------------------------|  x2
A-----------------------------------------------------|
E-----------------------------------------------------|


There was a fire and i could not hide

There was a fire so i jumped inside

I got lost inside you... So lost inside you

(repeat solo part)

all of the love that I have inside

Just look in my eyes I can not hide

SO lost inside you... lost inside you

(solo thing then--)
-
e---9--10--9--9------------------9--7--9--9-----------------|
B-10-10--10-10-10-8-------8-10-10-10-10-10-10-8-----8-10-10-|
G-------------------9-7-9----------------------9-7-9--------|
D-----------------------------------------------------------| x2
A-----------------------------------------------------------|
E-----------------------------------------------------------|
exibições 287
Acordes para:

    0 comentários

    mostrar mais comentários

    Conseguiu tocar?

    0 tocaram 0 ainda não

    Grave um vídeo tocando Fire Song e mande pra gente!

    00:00 / 00:00
    outros vídeos desta música
    repetir qualidade Automático
    Outros vídeos desta música
    00:00 / 00:00
    Automático
    OK