Cifra Club

Aprenda

Going To Hell Intro

Brian Jonestown Massacre

Cifra: Principal (violão e guitarra)
Tom: D
Tabbed by: Joe O
Tuning: EADGBe

Might not be perfect, work in progress.

e|-------------------------------------------------------------------------|
B|-------------------------------------------------------------------------|
G|-------------------------------------------------------------------------|
D|-------------------------------------------------------------------------|
A|-------------------------------------------------------------------------|
E|---3/5-5h9--5--5--5-3--3/5-5h9--5--5--5-3--------------------------------|


e|-------------------------------------------------------------------------|
B|-------------------------------------------------------------------------|
G|-------------------------------------------------------------------------|
D|---7-5---5h7--7-7/9--7--7--7-5--7-5---5h7--7-7/9--7--7--7-5--------------|
A|-------7----------------------------7------------------------------------|
E|-------------------------------------------------------------------------|


e|-------------------------------------------------------------------------|
B|-------------------------------------------------------------------------|
G|-------------------------------------------------------------------------|
D|-----------------------------------------------7-7-5---5h7---------------|
A|---7--7-7/9--7--7/9--7--7--7-5--5/7--7--7/9--7--------7------------------|
E|-------------------------------------------------------------------------|


Chord Progression                
     A    D    G    D
e|---0----2----3----2------------------------------------------------------|
B|---2----3----0----3------------------------------------------------------|
G|---2----2----0----2------------------------------------------------------|
D|---2----0----0----0------------------------------------------------------|
A|---0----X----2----X------------------------------------------------------|
E|---0----X----3----X------------------------------------------------------|


Other Progression
     A    G    D    G  D
e|---0----3----2----3--2---------------------------------------------------|
B|---2----0----3----0--3---------------------------------------------------|
G|---2----0----2----0--2---------------------------------------------------|
D|---2----0----0----0--0---------------------------------------------------|
A|---0----2----X----2--X---------------------------------------------------|
E|---0----3----X----3--x---------------------------------------------------|


| /  slide up
| \  slide down
| h  hammer-on
| p  pull-off
| ~  vibrato
| +  harmonic
| x  Mute note
===============================================================================


374 exibições
    • ½ Tom
    • A
    • Bb
    • B
    • C
    • Db
    • D
    • Eb
    • E
    • F
    • F#
    • G
    • Ab
  • Adicionar à lista

    0 comentários

    Mostrar mais comentários

    Conseguiu tocar?

    0 Tocaram 0 Ainda não

    Grave um vídeo tocando Going To Hell Intro e mande pra gente!

    00:00 / 00:00
    outros vídeos desta música
    repetir qualidade Automático
    Outros vídeos desta música
    00:00 / 00:00
    Automático

    Cifra Club Pro

    Aproveite o Cifra Club com benefícios exclusivos e sem anúncios
    7 dias grátis
    Cifra Club Pro
    Aproveite o Cifra Club com benefícios exclusivos e sem anúncios
    7 dias grátis
    OK