Cifra Club

Quem Apanha Não Esquece

Brilha Som

Cifra: Principal (violão e guitarra)
Tom: C
Intro: C  G  F  C  G

Solo:

E|-----------------------|
B|-------------------8---|
G|------------7-9-10-----|
D|-----7-9-10------------|
A|--10-------------------|
E|-----------------------|

E|-----------------------|
B|-----------------------|
G|--10-9-7----7----------|
D|---------10------------|
A|-----------------------|
E|-----------------------|

E|-----------------------|
B|-----------------------|
G|--9-7------------------|
D|------10-9-10----------|
A|-----------------------|
E|-----------------------|

E|-----------------------|
B|-----------------------|
G|-10-10-10-9----7-9-7---|
D|------------10---------|
A|-----------------------|
E|-----------------------|

C
Não sou mais aquele sujeito que você brincava,
    Dm
A coisa mudou!
G
Cansei de ser manipulado,
                                   C C7
Pra cima e pra baixo igual a um ioiô,
F
Eu sei que já quebrou a cara,
                D7              G
Pois aquele cara já te dispensou,
      D
Andei ouvindo comentários,
             G
Que andou bebeu e por mim chorou.
F
Quem bate não lembra de nada,
                           C
Mas quem apanha não esquece.
G                            F
Por todo mal que fez pra mim,
             C        G
Você não me merece!

C
To fora, vai embora e me esquece!
G
To fora, eu não sou pneu de estepe!
F                                             C
To fora, vai seguir a sua vida seu prazo acabou,
G
Não te quero mais!

C
To fora, vai seguir a sua estrada!
G
To fora, seu amor não vale nada!
F
To fora, a nossa historia chega ao fim,
C                 G            C       G
Você esta viva, mas morreu pra mim!
exibições 3.848
Acordes para:
    Composição: Marquinhos Maraial Colaboração e revisão:
    • Matheus Neves
    • Matheus Neves

    0 comentários

    mostrar mais comentários

    Conseguiu tocar?

    2 tocaram 0 ainda não

    Grave um vídeo tocando Quem Apanha Não Esquece e mande pra gente!

    00:00 / 00:00
    outros vídeos desta música
    repetir qualidade Automático
    Outros vídeos desta música
    00:00 / 00:00
    Automático
    OK