Enviar cifraEntrar

A Lot Like Vegas

Bring Me The Horizon

Tab de baixo: Principal
exibições 233
G|---------------------------------------------------------------------------|
C|---------------------------------------------------------------------------|
A|---------------------------------------------------------------------------|
C|---------------------------------------------------------------0-------0---|

G|---------------------------------------------------------------------------|
C|---------------------------------------------------------------------------|
A|----8---5-------4---7-------8---5-------4---7------------------------------|
C|------------0-----------0-----------0------------0---0-----0---------------|

G|---------------------------------------------------------------------------|
C|---------------------------------------------------------------------------|
A|-----1---------------------5---------------4-------------------------------|
C|---------------------------------------------------------------------------|

G|---------------------------------------------------------------------------|
C|---------------------------------------------------------------------------|
A|----8---5-------4---7-------8---5-------4---7------------------------------|
C|------------0-----------0-----------0------------0---0-----0---------------|

G|---------------------------------------------------------------------------|
C|---------------------------------------------------------------------------|
A|-----1--------------------------8--------------7---------------------------|
C|---------------------------------------------------------------------------|

G|---------------------------------------------------------------------------|
C|---------------------------------------------------------------------------|
A|----8---5-------4---7-------8---5-------4---7------------------------------|
C|------------0-----------0-----------0------------0---0-----0---------------|

G|---------------------------------------------------------------------------|
C|---------------------------------------------------------------------------|
A|-----1---------------------5---------------4-------------------------------|
C|---------------------------------------------------------------------------|

G|---------------------------------------------------------------------------|
C|---------------------------------------------------------------------------|
A|----8---5-------4---7-------8---5-------4---7------------------------------|
C|------------0-----------0-----------0------------0---0-----0---------------|

G|---------------------------------------------------------------------------|
C|---------------------------------------------------------------------------|
A|------1------8----7--------------------------------------------------------|
C|---------------------------0--------------8--------------5-----------------|

G|---------------------------------------------------------------------------|
C|---------------------------------------------------------------------------|
A|---------------------------------------------------------------------------|
C|----8---------10------8----------------------------------------0-----0-----|

G|---------------------------------------------------------------------------|
C|---------------------------------------------------------------------------|
A|---------------------------------------------------------------------------|
C|---------------------------------------------------------------0-------0---|

G|---------------------------------------------------------------------------|
C|---------------------------------------------------------------------------|
A|---------------------------------------------------------------------------|
C|---------------------------------------------------------------0-------0---|

G|--------------------------------------------------------------------|
C|--------------------------------------------------------------------|
A|--------------------------------------------------------------------|
C|------0-------0-------0--------0--------0-------0-------0-------0---|

G|---------------------------------------------------------------------------|
C|---------------------------------------------------------------------------|
A|---------------------------------------------------------------------------|
C|----------------------0--0--0--0--0--0--0--0--0----------------------------|

G|-------------------------------------------------------------|
C|-------------------------------------------------------------|
A|-------------------------------------------------------------|
C|------0-0-0--0--0--0-0-0--0--0--0-0-0-0-0-0-0-0-0------------|

G|----------------------------------------------------------|
C|----------------------------------------------------------|
A|----------------------------------------------------------|
C|-----0-----0--0------------0-0-0--0--0--0-0-0--0--0-------|

G|-------------------------------------------------------------|
C|-------------------------------------------------------------|
A|-------------------------------------------------------------|
C|------0-0-0--0--0--0-0-0--0--0--0-0-0-0-0-0-0-0-0------------|

G|----------------------------------------------------------|
C|----------------------------------------------------------|
A|----------------------------------------------------------|
C|-----0-----0--0------------0-0-0--0--0--0-0-0--0--0-------|

G|-------------------------------------------------------------|
C|-------------------------------------------------------------|
A|-------------------------------------------------------------|
C|------0-0-0--0--0--0-0-0--0--0--0-0-0-0-0-0-0-0-0------------|

G|---------------------------------------------------------------------------|
C|---------------------------------------------------------------------------|
A|--------------------------------------------8----------7-------------------|
C|--------0-------0----0-----------------------------------------------------|
                                                              
G|--------------------------------------------------------|   
C|--------------------------------------------------------|   
A|---------------------------------5-----8-----7-5--------|   
C|---0--0--0--0--0--0--0--0--0--0-----0-----0------0------|  
                                                               
G|-------------------------------------------------------|      
C|-------------------------------------------------------|      
A|---------------------------------------7--8-----5------|      
C|---8--8--8--8--8--8--8--8--5--5--5--5--------5---------|   
                                                                       
G|---------------------------------------------------------------------|
C|---------------------------------------------------------------------|  
A|------5----5----5----7----7----7----8----8----8----10----10----10----|
C|---------------------------------------------------------------------| 
                                                                    
G|-------------------------------------------------------------------|     
C|-------------------------------------------------------------------|
A|-------------------------------------------------------------------|    
C|---8---8---8---8---8---8---8---8---5---5---5---5---5---5---5---5---|   

G|---------------------------------------------------------------------------|
C|---------------------------------------------------------------------------|
A|---------------------------------------------------------------------------|
C|---8---8---8---8---8---8---8---8---5---5---5---5---5\----------------------|

G|-------------------------------------------------------------|
C|-------------------------------------------------------------|
A|-------------------------------------------------------------|
C|------0-0-0--0--0--0-0-0--0--0--0-0-0-0-0-0-0-0-0------------|

G|----------------------------------------------------------|
C|----------------------------------------------------------|
A|----------------------------------------------------------|
C|-----0-----0--0------------0-0-0--0--0--0-0-0--0--0-------|

G|-------------------------------------------------------------|
C|-------------------------------------------------------------|
A|-------------------------------------------------------------|
C|------0-0-0--0--0--0-0-0--0--0--0-0-0-0-0-0-0-0-0------------|

G|----------------------------------------------------------|
C|----------------------------------------------------------|
A|----------------------------------------------------------|
C|-----0-----0--0------------0-0-0--0--0--0-0-0--0--0-------|

G|-------------------------------------------------------------|
C|-------------------------------------------------------------|
A|-------------------------------------------------------------|
C|------0-0-0--0--0--0-0-0--0--0--0-0-0-0-0-0-0-0-0------------|
  • 1
  • 2
  • 3
  • 4
  • 5
  • 6
  • 7
  • 8
  • 9
  • 10
  • 11
  • 12
    Composição: Bring Me the Horizon / Oliver SykesColaboração e revisão:
    • jamesjohny

    0 comentários

      mostrar mais comentários

      Conseguiu tocar?

      0tocaram0ainda não

      Grave um vídeo tocando A Lot Like Vegas e mande pra gente!

      00:00 / 00:00
      outros vídeos desta música
      repetirqualidadeautomática
      • automática
      Outro vídeos desta música
        00:00 / 00:00
        automática
        • automática
        Acordes para:violão e guitarra
        dificuldadeexibiçõescontribuições
        1 versão de Tab de baixoexibiçõescontribuições
        3 versões de Guitar Proformatodownloadscontribuição
        fecharplay/pause subir/descer velocidade
        fechar
        OK
        Feedback