Cifra Club

Aprenda

Anthem

Bring Me The Horizon

Cifra: Principal (violão e guitarra)
tom: Bb
DROP A#

GUITAR 1
LEAD GUITAR


C ||-------------------------------|      ----------------------------------|
G ||-------------------------------|      ----------------------------------|
Eb||-------------------------------|
Bb||-------------------------------|      ----------------------------------|
F ||-------------------------------|      ----------------------------------|
Bb||-12--12--12--12--12--12--12--12|      --12--12--12--12--12--12--12---8--|

--------------------------|---------------------------|
--------------------------|---------------------------|
--------------------------|---------------------------|
--------------------------|---------------------------|
--------------------------|---------------------------|
-----8--8--8--8--10----7--|-----7--7--7--7--11-----0--|

  [0:09]
------------------------------|-------------------------------|
------------------------------|-------------------------------|
------------------------------|-------------------------------|
-------------------10---------|---------12----------13--------|
------------------------------|-------------------------------|
-----0--10--12--0------0--12--|-----12------12--12------0--0--|

-----------------------------|---------------------------------|
-----------------------------|---------------------------------|
-----------------------------|---------------------------------|
-------------------10--------|---------------------------------|
-----------------------------|---------------------------------|
-----0--10--12--0------0--0--|--13--13--13--13--10--10--10--0--|

------------------------------|-------------------------------|
------------------------------|-------------------------------|
------------------------------|-------------------------------|
-------------------10---------|---------12----------13--------|
------------------------------|-------------------------------|
-----0--10--12--0------0--12--|-----12------12--12------0--8--|

--------------------------|-----------------------------|
--------------------------|-----------------------------|
--------------------------|-----------------------------|
--------------------------|-----------------------------| X2  Last time play 5
--------------------------|-----------------------------|    instead of 0    3
-----8--8--8--8--10----7--|-----7--7--7--11--11--11--0--|

[0:25]
---------------------------|       ---------------------------|
---------------------------|       ---------------------------|
---------------------------|       ---------------------------|
-----/7--7--7--7--7--7--5--|<- X4  -----/7--7--7--7--7--7--8--|
-----/5--5--5--5--5--5--3--|       -----/5--5--5--5--5--5--6--|
---------------------------|       ---------------------------|

---------------------------|       ---------------------------|
---------------------------|       ---------------------------|
---------------------------|       ---------------------------|
------8--8--8--8--8--8--5--|  X2-> -----/7--7--7--7--7--7--5--|
------6--6--6--6--6--6--3--|       -----/5--5--5--5--5--5--3--|
---------------------------|       ---------------------------|

                                 PM    PM PM    PM
---------------------------|--------------------------|
---------------------------|--------------------------|
---------------------------|--------7--------8--------|
-----/7--7--7--7--7--7-----|-----------------------5--|
-----/5--5--5--5--5--5--6--|-----6-----6--6-----6--3--|
---------------------------|--------------------------|

---------------------------|       ---------------------------|
---------------------------|       ---------------------------|
---------------------------|       ---------------------------|
-----/7--7--7--7--7--7--5--|<- X2  -----/7--7--7--7--7--7--8--|
-----/5--5--5--5--5--5--3--|       -----/5--5--5--5--5--5--6--|
---------------------------|       ---------------------------|

---------------------------|       ---------------------------|
---------------------------|       ---------------------------|
---------------------------|       ---------------------------|
------8--8--8--8--8--8--5--|  X2-> -----/7--7--7--7--7--7--5--|
------6--6--6--6--6--6--3--|       -----/5--5--5--5--5--5--3--|
---------------------------|       ---------------------------|

                                 PM    PM PM    PM
---------------------------|--------------------------|
---------------------------|--------------------------|
---------------------------|--------7--------8--------|
-----/7--7--7--7--7--7-----|--------------------------|
-----/5--5--5--5--5--5--6--|-----6-----6--6-----6-----|
---------------------------|-----------------------0--|

   [0:45]
----------------------------|-------------------------|
----------------------------|-------------------------|
----------------------------|-------------------------|
--------10--------12--------|-------------------------|
----------------------------|--13------13----13-------|
-----0------0--0------0--0--|--13------13----13----0--|

-----------------------------|---------------------------------|
-----------------------------|---------------------------------|
-----------------------------|---------------------------------|
--------10--------12---------|---------------------------------|
-----------------------------|---------------------------------|
-----0------0--0------0-0/---|--16--16--16--16--10--10--10--0--|

----------------------------|---------------------------|
----------------------------|---------------------------|
----------------------------|---------------------------|
--------10--------12--------|---------------------------|
----------------------------|--15--13----13----13-------|
-----0------0--0------0--0--|--15--13----13----13----1--|

--------------------------|---------------------------------|
--------------------------|---------------------------------|
--------------------------|---------------------------------|
--------------------------|---------------------------------|
--------------------------|---------------------------------|
-----1--1--1--1--1--1--1--|--13--13--13--13--13--13--13--0--|





[0:55]
                                           PM
--------------------------|----------------------------|
--------------------------|----------------------------|
--------------------------|----------------------------|
----------------10--------|----------------------------|
--------------------------|----------------------------|
-----0--0----0------0--0--|-----0--12--10--0--0--0--0--|

               PM      PM
-----------------------------|---------------------------------|
-----------------------------|---------------------------------|
-----------------------------|---------------------------------|
------------------10---------|---------------------------------|
-----------------------------|---------------------------------|
-----0--0--0--12------12--0--|--13--13--13--13--10--10--10--0--|

--------------------------|-----------------------------|
--------------------------|-----------------------------|
--------------------------|-----------------------------|
----------------10--------|-------------------10--------|
--------------------------|-----------------------------|
-----0--0----0------0--0--|-----0--12--10--0------0--0--|

----------------------------|---------------------------|
----------------------------|---------------------------|
----------------------------|---------------------------|
------------------10--------|---------------------------|
----------------------------|---------------------------|
-----0--0--0--12------0--0--|--8--8--8--8--8--11-----0--|

--------------------------|-----------------------------|
--------------------------|-----------------------------|
--------------------------|-----------------------------|
----------------10--------|-------------------10--------|
--------------------------|-----------------------------|
-----0--0----0------0--0--|-----0--12--10--0------0--0--|

----------------------------|---------------------------------|
----------------------------|---------------------------------|
----------------------------|---------------------------------|
------------------10--------|---------------------------------|
----------------------------|---------------------------------|
-----0--0--0--12------0--0--|--13--13--13--13--10--10--10--0--|

--------------------------|-----------------------------|
--------------------------|-----------------------------|
--------------------------|-----------------------------|
----------------10--------|-------------------10--------|
--------------------------|-----------------------------|
-----0--0----0------0--0--|-----0--12--10--0------0--0--|

----------------------------|------------------------------|
----------------------------|------------------------------|
----------------------------|------------------------------|
------------------10--------|------------------------------|
----------------------------|------------------------------|
-----0--0--0--12------0--0--|--8--8--8--8--11--11--11--10--|





[1:13]
                          PM             PM         PM
---------------------------------|--------------------------|
---------------------------------|--------------------------|
---------------------------------|--------------------------|
---------------------------------|--------------------------|
---------------------------------|--------------------------|
-------12-12/~------------0--0---|-----0--0--0----0--0--10--|

                         PM          PM    PM PM    PM
---------------------------------|---------------------------|
---------------------------------|---------------------------|
---------------------------------|---------------------------|
---------------------------------|---------------------------|
---------------------------------|--------3--------5---------|
-------12-12/-~----------1--1----|-----1-----1--1-----1--10--|

                         PM             PM         PM
---------------------------------|--------------------------|
---------------------------------|--------------------------|
---------------------------------|--------------------------|
---------------------------------|--------------------------|
---------------------------------|--------------------------|
-------12-12/~-----------0-0-----|-----0--0--0----0--0--10--|

---------------------------------|-------------------------------|
---------------------------------|-------------------------------|
---------------------------------|-------------------------------|
---------------------------------|-------------------------------|
---------------------------------|-------------------------------|
-----12--12--12--12--12--12--12--|--12--10--0--13----13--13--10--|

                          PM
---------------------------------|------------------------|
---------------------------------|------------------------|
---------------------------------|------------------------|
---------------------------------|------------------------|
---------------------------------|------------------------|
-----12--12--12-12/-------0-0----|-----0--------------10--|

                                      PM    PM PM    PM
---------------------------------|---------------------------|
---------------------------------|---------------------------|
---------------------------------|---------------------------|
---------------------------------|---------------------------|
---------------------------------|--------3--------5---------|
-----12--12--12--12--12--12--1---|-----1-----1--1-----1--10--|

                          PM
---------------------------------|------------------------|
---------------------------------|------------------------|
---------------------------------|------------------------|
---------------------------------|------------------------|
---------------------------------|------------------------|
-----12--12--12-12/-------0--0---|-----0--------------10--|

---------------------------------|-------------------------------|
---------------------------------|-------------------------------|
---------------------------------|-------------------------------|
---------------------------------|-------------------------------|
---------------------------------|-------------------------------|
-----12--12--12--12--12--12--12--|--12--10--0--13----13--13--13--|

[1:30]
----------------------------------|      ----------------------------------|
----------------------------------|      ----------------------------------|
----------------------------------|      ----------------------------------| X2
----------------------------------|      ----------------------------------|
--10--12--12--12--12--12--12--12--|      --12--12--12--12--12--12--12--12--|--
--10--12--12--12--12--12--12--12--|      --12--12--12--12--12--12--12--12--|  |
                                                                              |
                                                                              |
----------------------------------|                                        X2 |
----------------------------------|                                           |
----------------------------------|                                           |
----------------------------------|  ------------------------------------------
--13--13--13--13--13--13--13--13--| last time play  |10 instead of 13|
--13--13--13--13--13--13--13--13--|                 |10                  13|

----------------------------------|--------------------------|
----------------------------------|--------------------------|
----------------------------------|--------------------------|
----------------------------------|--------------------------|
------12--12--12--12--12--12--12--|--12------10----13----10--|
------12--12--12--12--12--12--12--|--12------10----13----10--|

----------------------------------|---------------------------|
----------------------------------|---------------------------|
----------------------------------|---------------------------|
----------------------------------|---------------------------|
------12--12--12--12--12--12--12--|--5--3--2--0--5--3--2--10--|
------12--12--12--12--12--12--12--|--5--3--2--0--5--3--2--10--|

----------------------------------|-------------------------|
----------------------------------|-------------------------|
----------------------------------|-------------------------|
----------------------------------|-------------------------|
------12--12--12--12--12--12--12--|--12------10----13-------|
------12--12--12--12--12--12--12--|--12------10----13----1--|

     PM PM       PM PM          PM PM       PM PM
--------------------------|--------------------------|
--------------------------|--------------------------|
--------------------------|--------------------------|
--------------------------|--------------------------|
--------------------------|--------------------------|
-----1--1--13----1--1--1--|-----1--1--16----1--1--1--|

     PM PM
----------------------------------|---------------------------------|
----------------------------------|---------------------------------|
----------------------------------|---------------------------------|
----------------------------------|---------------------------------|
----------------------------------|---------------------------------|
------1--1--19--19--19--19--19----|--19--19--19--19--19--19--19--0--|

[1:50]
-------------------------|   Second time play a 0 at the end of the bar should
-------------------------|   be able to hear it in the song
-------------------------| X2
-------------------------|
-----0--0--0--0--0-------|

[1:59]
------------------------|-----------------------|----------------------|
------------------------|-----------------------|----------------------|
------------------------|-----------------------|----------------------|
------------------------|-----------------------|----------------------|
------------------------|-----------------------|----------------------|
-----0--0----0--0----0--|-----0--0----0--0------|--0--0------0--0------|

----------------------------------|-----------------------------------|
----------------------------------|-----------------------------------|
----------------------------------|-----------------------------------|
----------------------------------|-----------------------------------|
----------------------------------|-----------------------------------|
-----0-0-0--0--0--13--13--13--0---|-------0----0----0----0-----0------|

-------------------------|------------------------|------------------------|
-------------------------|------------------------|------------------------|
-------------------------|------------------------|------------------------| X2
-------------------------|------------------------|------------------------|
-------------------------|--12------10------13----|-----3------6-----------|
-----0--0----0--0--0--0--|--12------10------13----|-----3---------5--3--0--|

----------------------|
----------------------|
----------------------| Second time play this instead of the last bar
----------------------|
-----3------4----3----|
-----3------4----3----|





[2:16]
   PM  PM  PM  PM  PM  PM  PM  PM     PM  PM  PM  PM  PM  PM  PM  PM
----------------------------------|----------------------------------|
----------------------------------|----------------------------------|
----------------------------------|----------------------------------|
--12--12--12--12--12--12--12--12--|--12--12--12--12--12--12--12--12--|
----------------------------------|----------------------------------|
----------------------------------|----------------------------------|

   PM  PM  PM  PM  PM  PM  PM  PM     PM  PM  PM  PM  PM  PM  PM
----------------------------------|---------------------------------|
----------------------------------|---------------------------------|
----------------------------------|---------------------------------|
--12--10--10--10--10--10--10--10--|--10--10--10--10--10--10--10-----|
----------------------------------|------------------------------5--|
----------------------------------|------------------------------5--|

----------------------|-----------------------|----------------------|
----------------------|-----------------------|----------------------|
----------------------|-----------------------|----------------------|
----------------------|-----------------------|----------------------|
-----5--5----5--------|-----------5--5--5--8--|-----8--8----8--------|
-----5--5----5--------|-----------5--5--5--8--|-----8--8----8--------|

[2:25]
-----------------------------13---|------13--13--13--13--13--13--13--|
----------------------------------|----------------------------------|
----------------------------------|----------------------------------|
----------------------------------|----------------------------------|
----------------------------------|----------------------------------|
----------------------------------|----------------------------------|

--13--13--13--13--17--17--17--12--|-----12--12--12--12--12--12--12--|
----------------------------------|---------------------------------|
----------------------------------|---------------------------------|
----------------------------------|---------------------------------|
----------------------------------|---------------------------------|
----------------------------------|---------------------------------|

--12--12--12--12--13--13--13--15--|-----15--15--15--15--15--15--15--|
----------------------------------|---------------------------------|
----------------------------------|---------------------------------|
----------------------------------|---------------------------------|
----------------------------------|---------------------------------|
----------------------------------|---------------------------------|

--15--15--15--15--18--18--18--17--|-----17--17--17--17--17--17--17--|
----------------------------------|---------------------------------|
----------------------------------|---------------------------------|
----------------------------------|---------------------------------|
----------------------------------|---------------------------------|
----------------------------------|---------------------------------|

--20--20--20--20--20--20--20--13--|   Second time play 20 instead of 13
----------------------------------|
----------------------------------| X2
----------------------------------|
----------------------------------|
----------------------------------|


[2:48]
 PM PM PM PM PM
--------------------------|
--------------------------|
--------------------------|
--------------------------|
--0--0--0--0--0-----------|
--0--0--0--0--0-----------|

[2:53]
-------------------------------|      ----------------------------------|
-------------------------------|      ----------------------------------|
-------------------------------|<-X5  ----------------------------------|
-------------------------------|      ----------------------------------|
-------------------------------|      ----------------------------------|
-12--12--12--12--12--12--12--12|      --12--12--12--12--12--12--12---8--|

---------------------------------|-------------------------------|
---------------------------------|-------------------------------|
---------------------------------|-------------------------------|
---------------------------------|-------------------------------|
---------------------------------|-------------------------------|
------8---8---8---8---10---7-----|-----7---7---7---7---11--------|

 [3:04]
---------------------------------|-------------------------------|
---------------------------------|-------------------------------|
---------------------------------|-------------------------------|
-------------------10------------|---------12----------13--------|
---------------------------------|-------------------------------|
-----0--10--12--0-------0--12----|-----12------12--12------0--0--|

---------------------------------|---------------------------------|
---------------------------------|---------------------------------|
---------------------------------|---------------------------------|
-------------------10------------|---------------------------------|
---------------------------------|---------------------------------|
-----0--10--12--0-------0--0-----|--13--13--13--13--10--10--10--0--|

--------------------------------|-------------------------------|
--------------------------------|-------------------------------|
--------------------------------|-------------------------------|
-------------------10-----------|---------12----------13--------|
--------------------------------|-------------------------------|
-----0--10--12--0------0--12----|-----12------12--12------0--8--|

--------------------------|-----------------------------|
--------------------------|-----------------------------|
--------------------------|-----------------------------|
--------------------------|-----------------------------| X2 Second time play 8
--------------------------|-----------------------------|    instead of 0
-----8--8--8--8--10----7--|-----7--7--7--11--11--11--0--|

-----------------------------|-----------------------------|
-----------------------------|-----------------------------|
-----------------------------|-----------------------------|
-----------------------------|-----------------------------|
-----------------------------|--------------------------0--|  ring open on 0's
------8--8--8--8--10----7----|-----7--7--7--11--11--11--0--|

----------------------|
----------------------|
----------------------|
----------------------|
--13--------10--------|
--13--------10--------|





[3:29]
  PM PM PM PM       PM PM PM    PM PM PM             PM PM PM
-----------------------------|--------------------------------|
-----------------------------|--------------------------------|
-----------------------------|--------------------------------|
-----------------------------|--------------------------------|
--0--0--0--0-----3--0--0--0--|--0--0--0--3--------6--0--0--0--|
--0--0--0--0--1-----0--0--0--|--0--0--0-----1--3-----0--0--0--|

  PM PM PM PM PM PM       PM PM
--------------------------------|----------------------------------|
--------------------------------|----------------------------------|
--------------------------------|----------------------------------|
--------------------------------|----------------------------------| X2
--0--0--0--0--0--0-----3--0--0--|----------------------------------|
--0--0--0--0--0--0--1-----0--0--|--13--13--13--13--10--10--10--10--|

  PM PM PM PM       PM PM PM    PM PM PM       PM    PM PM PM
-----------------------------|--------------------------------|
-----------------------------|--------------------------------|
-----------------5-----------|-----------5--------8-----------|
--------------1--------------|--------------1--0--------------|
--0--0--0--0--------0--0--0--|--0--0--0--------------0--0--0--|
--0--0--0--0--------0--0--0--|--0--0--0--------------0--0--0--|

   PM PM PM PM PM PM       PM PM
--------------------------------|----------------------------------|
--------------------------------|----------------------------------|
-----------------------5--------|----------------------------------|
--------------------1-----------|----------------------------------|
--0--0--0--0--0--0--------0--0--|----------------------------------|
--0--0--0--0--0--0--------0--0--|--13--13--13--13--10--10--10--10--|

 PM PM PM PM       PM PM PM     PM PM PM             PM PM PM
------------------------------|--------------------------------|
------------------------------|--------------------------------|
------------------------------|--------------------------------|
------------------------------|--------------------------------|
--0--0--0--0--------0--0--0---|--0--0--0--------------0--0--0--|
--0--0--0--0--0--0--0--0--0---|--0--0--0--0--0--0--0--0--0--0--|

PM PM PM PM PM PM       PM PM
----------------------------------|----------------------------------||
----------------------------------|----------------------------------||
----------------------------------|----------------------------------||
----------------------------------|----------------------------------||
--0--0--0---0--0--0--------0---0--|----------------------------------||
--0--0--0---0--0--0--0--0--0---0--|--13--13--13--13--10--10--10--10--||







GUITAR 2
RHYTHM GUITAR







  [0:09]
------------------------------|-------------------------------|
------------------------------|-------------------------------|
------------------------------|-------------------------------|
-------------------10---------|---------12----------13--------|
------------------------------|-------------------------------|
-----0--10--12--0------0--12--|-----12------12--12------0--0--|

-----------------------------|---------------------------------|
-----------------------------|---------------------------------|
-----------------------------|---------------------------------|
-------------------10--------|---------------------------------|
-----------------------------|---------------------------------|
-----0--10--12--0------0--0--|--13--13--13--13--10--10--10--0--|

------------------------------|-------------------------------|
------------------------------|-------------------------------|
------------------------------|-------------------------------|
-------------------10---------|---------12----------13--------|
------------------------------|-------------------------------|
-----0--10--12--0------0--12--|-----12------12--12------0--8--|

--------------------------|-----------------------------|
--------------------------|-----------------------------|
--------------------------|-----------------------------|
--------------------------|-----------------------------| X2 ring open on last
--------------------------|-----------------------------|    note
-----8--8--8--8--10----7--|-----7--7--7--11--11--11--0--|


[0:27]
pick slide
------------------------------|
------------------------------|
------------------------------|
------------------------------|
/-/-/-/-/-/-/-/-/-/-/-/-/--5--|
/-/-/-/-/-/-/-/-/-/-/-/-/--3--|




---------------------------|       ---------------------------|
---------------------------|       ---------------------------|
---------------------------|       ---------------------------| ----
-----/7--7--7--7--7--7--5--|<- X2  -----/7--7--7--7--7--7--8--|     |
-----/5--5--5--5--5--5--3--|       -----/5--5--5--5--5--5--6--|     |
---------------------------|       ---------------------------|     |
                                                                    |
                                                                    |
---------------------------|       ---------------------------|     |
---------------------------|       ---------------------------|     | X2
---------------------------|       ---------------------------|     |
------8--8--8--8--8--8--5--|  X2-> -----/7--7--7--7--7--7--5--|     |
------6--6--6--6--6--6--3--|       -----/5--5--5--5--5--5--3--|     |
---------------------------|       ---------------------------|     |
                                                                    |
                                                                    |
                                 PM    PM PM    PM                  |
---------------------------|--------------------------|             |
---------------------------|--------------------------|             |
---------------------------|--------7--------8--------|             |
-----/7--7--7--7--7--7-----|--------------------------|------------
-----/5--5--5--5--5--5--6--|-----6-----6--6-----6-----|
---------------------------|-----------------------0--|

   [0:45]
----------------------------|-------------------------|
----------------------------|-------------------------|
----------------------------|-------------------------|
--------10--------12--------|-------------------------|
----------------------------|--13------13----13-------|
-----0------0--0------0--0--|--13------13----13----0--|

-----------------------------|---------------------------------|
-----------------------------|---------------------------------|
-----------------------------|---------------------------------|
--------10--------12---------|---------------------------------|
-----------------------------|---------------------------------|
-----0------0--0------0-0/---|--16--16--16--16--10--10--10--0--|

----------------------------|---------------------------|
----------------------------|---------------------------|
----------------------------|---------------------------|
--------10--------12--------|---------------------------|
----------------------------|--15--13----13----13-------|
-----0------0--0------0--0--|--15--13----13----13----1--|

--------------------------|
--------------------------|
--------------------------|
--------------------------|
--------------------------|
-----1--1--1--1--1--1--1--|





[0:55]
                                           PM
--------------------------|----------------------------|
--------------------------|----------------------------|
--------------------------|----------------------------|
----------------10--------|----------------------------|
--------------------------|----------------------------|
-----0--0----0------0--0--|-----0--12--10--0--0--0--0--|

               PM      PM
-----------------------------|---------------------------------|
-----------------------------|---------------------------------|
-----------------------------|---------------------------------|
------------------10---------|---------------------------------|
-----------------------------|---------------------------------|
-----0--0--0--12------12--0--|--13--13--13--13--10--10--10--0--|

--------------------------|-----------------------------|
--------------------------|-----------------------------|
--------------------------|-----------------------------|
----------------10--------|-------------------10--------|
--------------------------|-----------------------------|
-----0--0----0------0--0--|-----0--12--10--0------0--0--|

----------------------------|---------------------------|
----------------------------|---------------------------|
----------------------------|---------------------------|
------------------10--------|---------------------------|
----------------------------|---------------------------|
-----0--0--0--12------0--0--|--8--8--8--8--8--11-----0--|

--------------------------|-----------------------------|
--------------------------|-----------------------------|
--------------------------|-----------------------------|
----------------10--------|-------------------10--------|
--------------------------|-----------------------------|
-----0--0----0------0--0--|-----0--12--10--0------0--0--|

----------------------------|---------------------------------|
----------------------------|---------------------------------|
----------------------------|---------------------------------|
------------------10--------|---------------------------------|
----------------------------|---------------------------------|
-----0--0--0--12------0--0--|--13--13--13--13--10--10--10--0--|

--------------------------|-----------------------------|
--------------------------|-----------------------------|
--------------------------|-----------------------------|
----------------10--------|-------------------10--------|
--------------------------|-----------------------------|
-----0--0----0------0--0--|-----0--12--10--0------0--0--|

----------------------------|------------------------------|
----------------------------|------------------------------|
----------------------------|------------------------------|
------------------10--------|------------------------------|
----------------------------|------------------------------|
-----0--0--0--12------0--0--|--8--8--8--8--11--11--11--10--|





[1:13]
                          PM             PM         PM
---------------------------------|--------------------------|
---------------------------------|--------------------------|
---------------------------------|--------------------------|
---------------------------------|--------------------------|
---------------------------------|--------------------------|
-------12-12/~------------0--0---|-----0--0--0----0--0--10--|

                         PM          PM    PM PM    PM
---------------------------------|---------------------------|
---------------------------------|---------------------------|
---------------------------------|---------------------------|
---------------------------------|---------------------------|
---------------------------------|--------3--------5---------|
-------12-12/-~----------1--1----|-----1-----1--1-----1--10--|

                         PM             PM         PM
---------------------------------|--------------------------|
---------------------------------|--------------------------|
---------------------------------|--------------------------|
---------------------------------|--------------------------|
---------------------------------|--------------------------|
-------12-12/~-----------0-0-----|-----0--0--0----0--0--10--|

---------------------------------|-------------------------------|
---------------------------------|-------------------------------|
---------------------------------|-------------------------------|
---------------------------------|-------------------------------|
---------------------------------|-------------------------------|
-----12--12--12--12--12--12--12--|--12--10--0--13----13--13--10--|

                          PM
---------------------------------|------------------------|
---------------------------------|------------------------|
---------------------------------|------------------------|
---------------------------------|------------------------|
---------------------------------|------------------------|
-----12--12--12-12/-------0-0----|-----0--------------10--|

                                      PM    PM PM    PM
---------------------------------|---------------------------|
---------------------------------|---------------------------|
---------------------------------|---------------------------|
---------------------------------|---------------------------|
---------------------------------|--------3--------5---------|
-----12--12--12--12--12--12--1---|-----1-----1--1-----1--10--|

                          PM
---------------------------------|------------------------|
---------------------------------|------------------------|
---------------------------------|------------------------|
---------------------------------|------------------------|
---------------------------------|------------------------|
-----12--12--12-12/-------0--0---|-----0--------------10--|

---------------------------------|-------------------------------|
---------------------------------|-------------------------------|
---------------------------------|-------------------------------|
---------------------------------|-------------------------------|
---------------------------------|-------------------------------|
-----12--12--12--12--12--12--12--|--12--10--0--13----13--13--13--|

[1:30]
----------------------------------|      ----------------------------------|
----------------------------------|      ----------------------------------|
----------------------------------|      ----------------------------------| X2
----------------------------------|      ----------------------------------|
--10--12--12--12--12--12--12--12--|      --12--12--12--12--12--12--12--12--|--
--10--12--12--12--12--12--12--12--|      --12--12--12--12--12--12--12--12--|  |
                                                                              |
                                                                              |
----------------------------------|                                        X2 |
----------------------------------|                                           |
----------------------------------|                                           |
----------------------------------|  ------------------------------------------
--13--13--13--13--13--13--13--13--| last note play  |10 instead of 13|
--13--13--13--13--13--13--13--13--|                 |10                  13|

----------------------------------|--------------------------|
----------------------------------|--------------------------|
----------------------------------|--------------------------|
----------------------------------|--------------------------|
------12--12--12--12--12--12--12--|--12------10----13----10--|
------12--12--12--12--12--12--12--|--12------10----13----10--|

----------------------------------|---------------------------|
----------------------------------|---------------------------|
----------------------------------|---------------------------|
----------------------------------|---------------------------|
------12--12--12--12--12--12--12--|--5--3--2--0--5--3--2--10--|
------12--12--12--12--12--12--12--|--5--3--2--0--5--3--2--10--|

----------------------------------|-------------------------|
----------------------------------|-------------------------|
----------------------------------|-------------------------|
----------------------------------|-------------------------|
------12--12--12--12--12--12--12--|--12------10----13-------|
------12--12--12--12--12--12--12--|--12------10----13----1--|

     PM PM       PM PM          PM PM       PM PM
--------------------------|--------------------------|
--------------------------|--------------------------|
--------------------------|--------------------------|
--------------------------|--------------------------|
--------------------------|--------------------------|
-----1--1--13----1--1--1--|-----1--1--16----1--1--1--|

     PM PM
----------------------------------|---------------------------------|
----------------------------------|---------------------------------|
----------------------------------|---------------------------------|
----------------------------------|---------------------------------|
----------------------------------|---------------------------------|
------1--1--19--19--19--19--19----|--19--19--19--19--19--19--19--0--|

[1:50]
-------------------------|   Second time play a 0 at the end of the bar should
-------------------------|   be able to hear it in the song
-------------------------| X2
-------------------------|
-----0--0--0--0--0-------|

[1:59]
------------------------|-----------------------|----------------------|
------------------------|-----------------------|----------------------|
------------------------|-----------------------|----------------------|
------------------------|-----------------------|----------------------|
------------------------|-----------------------|----------------------|
-----0--0----0--0----0--|-----0--0----0--0------|--0--0------0--0------|

----------------------------------|-----------------------------------|
----------------------------------|-----------------------------------|
----------------------------------|-----------------------------------|
----------------------------------|-----------------------------------|
----------------------------------|-----------------------------------|
-----0-0-0--0--0--13--13--13--0---|-------0----0----0----0-----0------|

-------------------------|------------------------|------------------------|
-------------------------|------------------------|------------------------|
-------------------------|------------------------|------------------------| X2
-------------------------|------------------------|------------------------|
-------------------------|--12------10------13----|-----3------6-----------|
-----0--0----0--0--0--0--|--12------10------13----|-----3---------5--3--0--|

----------------------|
----------------------|
----------------------| Second time play this instead of the last bar
----------------------|
-----3------4----3----|
-----3------4----3----|

               [2:20]
----------------------|----------------------|
----------------------|----------------------|
----------------------|----------------------|
----------------------|----------------------|
------------------5---|-----5--5----5--------|
------------------5---|-----5--5----5--------|

-----------------------|----------------------|----------------------|
-----------------------|----------------------|----------------------|
-----------------------|----------------------|----------------------|
-----------------------|----------------------|----------------------|
-----------5--5--5--8--|-----8--8----8--------|-----------8------12--|
-----------5--5--5--8--|-----8--8----8--------|-----------8------12--|

----------------------------|------------------------------|
----------------------------|------------------------------| --------------
----------------------------|------------------------------|               |
----------------------------|------------------------------|               |
------12--12----12----12----|--12----12----12--12--12--10--|               |
------12--12----12----12----|--12----12----12--12--12--10--|               |
                                                                           |
                                                                           |
---------------------------|-----------------------------|                 |
---------------------------|-----------------------------|                 |
---------------------------|-----------------------------|                 |
---------------------------|-----------------------------|                 | X2
-----10--10----10----10----|--10----10----10--10--10--5--|                 |
-----10--10----10----10----|--10----10----10--10--10--5--|                 |
                                                                           |
                                                                           |
---------------------------|------------------------|                      |
---------------------------|------------------------|                      |
---------------------------|------------------------|                      |
---------------------------|------------------------|                      |
------5--5-----5-----5-----|--5----5----5--5--5--8--|                      |
------5--5-----5-----5-----|--5----5----5--5--5--8--|                      |
                                                                           |
                                                                           |
---------------------------|-------------------------|                     |
---------------------------|-------------------------|last note play  8    |
---------------------------|-------------------------| instead of  12      |
---------------------------|-------------------------|---------------------
------8--8-----8-----8-----|--8----8----8--8--8--12--|
------8--8-----8-----8-----|--8----8----8--8--8--12--|

[2:53]
-------------------------------|      ----------------------------------|
-------------------------------|      ----------------------------------|
-------------------------------|<-X13 ----------------------------------|
-------------------------------|      ----------------------------------|
-------------------------------|      ----------------------------------|
-12--12--12--12--12--12--12--12|      --12--12--12--12--12--12--12---8--|

---------------------------------|-------------------------------|
---------------------------------|-------------------------------|
---------------------------------|-------------------------------|
---------------------------------|-------------------------------|
---------------------------------|-------------------------------|
------8---8---8---8---10---7-----|-----7---7---7---7---11--------|

 [3:04]
---------------------------------|-------------------------------|
---------------------------------|-------------------------------|
---------------------------------|-------------------------------|
-------------------10------------|---------12----------13--------|
---------------------------------|-------------------------------|
-----0--10--12--0-------0--12----|-----12------12--12------0--0--|

---------------------------------|---------------------------------|
---------------------------------|---------------------------------|
---------------------------------|---------------------------------|
-------------------10------------|---------------------------------|
---------------------------------|---------------------------------|
-----0--10--12--0-------0--0-----|--13--13--13--13--10--10--10--0--|

--------------------------------|-------------------------------|
--------------------------------|-------------------------------|
--------------------------------|-------------------------------|
-------------------10-----------|---------12----------13--------|
--------------------------------|-------------------------------|
-----0--10--12--0------0--12----|-----12------12--12------0--8--|

--------------------------|-----------------------------|
--------------------------|-----------------------------|
--------------------------|-----------------------------|
--------------------------|-----------------------------| X2 Second time play 8
--------------------------|-----------------------------|    instead of 0
-----8--8--8--8--10----7--|-----7--7--7--11--11--11--0--|

-----------------------------|-----------------------------|
-----------------------------|-----------------------------|
-----------------------------|-----------------------------|
-----------------------------|-----------------------------|
-----------------------------|--------------------------0--|  ring open on 0's
------8--8--8--8--10----7----|-----7--7--7--11--11--11--0--|

----------------------|
----------------------|
----------------------|
----------------------|
--13--------10--------|
--13--------10--------|





[3:29]
  PM PM PM PM       PM PM PM    PM PM PM             PM PM PM
-----------------------------|--------------------------------|
-----------------------------|--------------------------------|
-----------------------------|--------------------------------|
-----------------------------|--------------------------------|
--0--0--0--0-----3--0--0--0--|--0--0--0--3--------6--0--0--0--|
--0--0--0--0--1-----0--0--0--|--0--0--0-----1--3-----0--0--0--|

  PM PM PM PM PM PM       PM PM
--------------------------------|----------------------------------|
--------------------------------|----------------------------------|
--------------------------------|----------------------------------|
--------------------------------|----------------------------------| X2
--0--0--0--0--0--0-----3--0--0--|----------------------------------|
--0--0--0--0--0--0--1-----0--0--|--13--13--13--13--10--10--10--10--|

  PM PM PM PM       PM PM PM    PM PM PM       PM    PM PM PM
-----------------------------|--------------------------------|
-----------------------------|--------------------------------|
-----------------5-----------|-----------5--------8-----------|
--------------1--------------|--------------1--0--------------|
--0--0--0--0--------0--0--0--|--0--0--0--------------0--0--0--|
--0--0--0--0--------0--0--0--|--0--0--0--------------0--0--0--|

   PM PM PM PM PM PM       PM PM
--------------------------------|----------------------------------|
--------------------------------|----------------------------------|
-----------------------5--------|----------------------------------|
--------------------1-----------|----------------------------------|
--0--0--0--0--0--0--------0--0--|----------------------------------|
--0--0--0--0--0--0--------0--0--|--13--13--13--13--10--10--10--10--|

 PM PM PM PM       PM PM PM     PM PM PM             PM PM PM
------------------------------|--------------------------------|
------------------------------|--------------------------------|
------------------------------|--------------------------------|
------------------------------|--------------------------------|
--0--0--0--0--------0--0--0---|--0--0--0--------------0--0--0--|
--0--0--0--0--0--0--0--0--0---|--0--0--0--0--0--0--0--0--0--0--|

PM PM PM PM PM PM       PM PM
----------------------------------|----------------------------------||
----------------------------------|----------------------------------||
----------------------------------|----------------------------------||
----------------------------------|----------------------------------||
--0--0--0---0--0--0--------0---0--|----------------------------------||
--0--0--0---0--0--0--0--0--0---0--|--13--13--13--13--10--10--10--10--||







************************************
| PM  palm mute
| /   slide up
| \   slide down
| h   hammer-on
| p   pull-off
| ~   vibrato
| +   harmonic
| x   Mute note
| b   Bend
| pb  Pre-bend
| br  Bend release
| pbr Pre-bend release
| brb Bend release bend

************************************
Composição de Bring Me the Horizon / Oliver Sykes
Colaboração e revisão:
  • Gabe Jose
325 exibições
    • ½ Tom
    • A
    • Bb
    • B
    • C
    • Db
    • D
    • Eb
    • E
    • F
    • F#
    • G
    • Ab
  • Adicionar à lista

    0 comentários

    Ver todos os comentários
    00:00 / 00:00
    Outros vídeos desta música
    Repetir Qualidade Automático
    Outros vídeos desta música
    00:00 / 00:00
    Automático

    Cifra Club Pro

    Aproveite o Cifra Club com benefícios exclusivos e sem anúncios
    Cifra Club Pro
    Aproveite o Cifra Club com benefícios exclusivos e sem anúncios
    OK