Cifra Club

Aprenda

Chelsea Smile

Bring Me The Horizon

Cifra: Principal (violão e guitarra)
tom: Bb
Afinação: C G D# A# F A# 

Riff 1

C |------------------------------------------------------------------------|
G |------------------------------------------------------------------------|
D#|------------------------------------------------------------------------|
A#|------------------------------------------------------------------------|
F |------------------------------------------------------------------------|
A#|-12-10-0-10--0-0-0--0-0--0-0-0-0-12-10-0-10--0-10-0-12-10-12-13--0-13-0-|
          *     * * *  * *  * * * *       *     *    *              *    *  

C |------------------------------------------------------------------------|
G |------------------------------------------------------------------------|
D#|------------------------------------------------------------------------|
A#|------------------------------------------------------------------------|
F |------------------------------------------------------------------------|
A#|-12-10-0-12--0-0-0-----0-0-0-0-0-0-12-6-0-5-0-0-3-0-0-3-0-0-3-6-6-6-6-6-|
          *     * * *     * * * * * *    

Riff 2

C |-----| 
G |-----|
D#|-----|
A#|-----|
F |-0-0-|
A#|-0-0-|       
    * *

Riff 3 (2x)

C |------------------------------------------------------------------------|
G |------------------------------------------------------------------------|
D#|------------------------------------------------------------------------|
A#|------------------------------------------------------------------------|
F |----15--------0-0-0--0-0--0-0-0-0----15-------0-0-0--0-0-0-18-----------|       
A#|-13----13-12--0-0-0--0-0--0-0-0-0-13----13-12-0-0-0--0-0-0----13-12-0---|        
                 * * *  * *  * * * *             * * *  * * *          *             
                                                                                   
C |------------------------------------------------------------------------------|  
G |------------------------------------------------------------------------------| 
D#|------------------------------------------------------------------------------|
A#|------------------------------------------------------------------------------|
F |----15--------0-0-0--0-0--0-0-0-0----15--------------------18-----------------|
A#|-13----13-12--0-0-0--0-0--0-0-0-0-13----13-13--13-13-13-13----13-16--16-16-16-|
                 * * *  * *  * * * *            

Riff 4

C |-----------------------------------------------------------------|
G |-----------------------------------------------------------------|
D#|-7-7-7-7-7-7-7-7-7-7-7-7-7-7-7-7-3-3-3-3-3-3-3-3-3-3-3-3-3-3-3-3-|
A#|-7-7-7-7-7-7-7-7-7-7-7-7-7-7-7-7-3-3-3-3-3-3-3-3-3-3-3-3-3-3-3-3-|
F |-5-5-5-5-5-5-5-5-5-5-5-5-5-5-5-5-1-1-1-1-1-1-1-1-1-1-1-1-1-1-1-1-| 
A#|-----------------------------------------------------------------|

C |-----------------------------------------------------------------|
G |-----------------------------------------------------------------|
D#|-----------------------------------------------------------------|
A#|-5-5-5-5-5-5-5-5-5-5-5-5-5-5-5-5-7-7-7-7-7-7-7-7-7-7-7-7-7-7-7-7-|
F |-5-5-5-5-5-5-5-5-5-5-5-5-5-5-5-5-7-7-7-7-7-7-7-7-7-7-7-7-7-7-7-7-|
A#|-5-5-5-5-5-5-5-5-5-5-5-5-5-5-5-5-7-7-7-7-7-7-7-7-7-7-7-7-7-7-7-7-|

Riff 5

C |-----------------------------------------------------------------------------------|  
G |-----------------------------------------------------------------------------------| 
D#|-----------------------------------------------------------------------------------|
A#|-----------------------------------------------------------------------------------|
F |-------------------------------3---3H5--------3---3H5------------------------------|
A#|-8--8--8-8--5--0-5-0-5H7--0--0---0-----0-0--0---0-----0-8--8--8-8--5--0-5-0-5H7--0-|

C |--------=-----------------------------------------------------------------------------|
G |----6-6-6-6-6-6-6-6-6-6-6-6-6---------------------------------------------------------|
D#|----9-9-9-9-9-9-9-9-9-9-9-9-9---------------------------------------------------------|
A#|--------------------------------------------------------------------------------------|
F |------------------------------------------------------------3---3H5--------3---3H5----|
A#|------------------------------8--8--8-8--5--0-5-0-5H7--0--0---0-----0-0--0---0-----0--|

C |-------------------------------|  
G |-------------------------------|
D#|-------------------------------|
A#|-------------------------------|
F |-------------------------------|
A#|-8--8--8-8--5--0-5-0-5H7-7-7-7-|

Riff 6 

C |-----|  
G |-----|
D#|-----|
A#|-----|
F |-0-0-|
A#|-0-0-|
    * * 

Riff 1 (2x)

C |------------------------------------------------------------------------|
G |------------------------------------------------------------------------|
D#|------------------------------------------------------------------------|
A#|------------------------------------------------------------------------|
F |------------------------------------------------------------------------|
A#|-12-10-0-10--0-0-0--0-0--0-0-0-0-12-10-0-10--0-10-0-12-10-12-13--0-13-0-|
          *     * * *  * *  * * * *       *     *    *              *    *  

C |------------------------------------------------------------------------|
G |------------------------------------------------------------------------|
D#|------------------------------------------------------------------------|
A#|------------------------------------------------------------------------|
F |------------------------------------------------------------------------|
A#|-12-10-0-12--0-0-0-----0-0-0-0-0-0-12-6-0-5-0-0-3-0-0-3-0-0-3-6-6-6-6-6-|
          *     * * *     * * * * * *    

Riff 3 (2x)

C |------------------------------------------------------------------------|
G |------------------------------------------------------------------------|
D#|------------------------------------------------------------------------|
A#|------------------------------------------------------------------------|
F |----15--------0-0-0--0-0--0-0-0-0----15-------0-0-0--0-0-0-18-----------|       
A#|-13----13-12--0-0-0--0-0--0-0-0-0-13----13-12-0-0-0--0-0-0----13-12-0---|        
                 * * *  * *  * * * *             * * *  * * *          *             
                                                                                   
C |------------------------------------------------------------------------------|  
G |------------------------------------------------------------------------------| 
D#|------------------------------------------------------------------------------|
A#|------------------------------------------------------------------------------|
F |----15--------0-0-0--0-0--0-0-0-0----15--------------------18-----------------|
A#|-13----13-12--0-0-0--0-0--0-0-0-0-13----13-13--13-13-13-13----13-16--16-16-16-|
                 * * *  * *  * * * *            

Riff 7 (4x)    

C |------------------------------------| 
G |------------------------------------|
D#|------------------------------------|
A#|-1--0-0--4--1--0-0--x-x-x-x-x-x-x-x-|
F |-1--0-0--4--1--0-0--x-x-x-x-x-x-x-x-|
A#|-1--0-0--4--1--0-0--x-x-x-x-x-x-x-x-|
    *  * *  *  *  * *  * * * * * * * *

Riff 8 (4x)

C |------------------------------------| 
G |------------------------------------| 
D#|------------------------------------|
A#|-1--0-0--4--1--0-0--x-x-x-x-x-x-x-x-|
F |-1--0-0--4--1--0-0--x-x-x-x-x-x-x-x-|
A#|-1--0-0--4--1--0-0--x-x-x-x-x-x-x-x-|

Riff 9

C |-------------------------------------------------18-18-18-18-18-18-18-18-18-18-18-18-18-18-18-18-|
G |-15-15-15-15-15-15-15-15-15-15-15-15-15-15-15-15-x--x--x--x--x--x--x--x--x--x--x--x--x--x--x--x--|
D#|-x--x--x--x--x--x--x--x--x--x--x--x--x--x--x--x--15-15-15-15-15-15-15-15-15-15-15-15-15-15-15-15-|
A#|-12-12-12-12-12-12-12-12-12-12-12-12-12-12-12-12-------------------------------------------------|
F |-------------------------------------------------------------------------------------------------|
A#|-------------------------------------------------------------------------------------------------|

C |-17-17-17-17-17-17-17-17-17-17-17-17-17-17-17-17-13-13-13-13-13-13-13-13-15-15-15-15-17-17-17-17-|
G |-x--x--x--x--x--x--x--x--x--x--x--x--x--x--x--x--x--x--x--x--x--x--x--x--x--x--x--x--x--x--x--x--|
D#|-14-14-14-14-14-14-14-14-14-14-14-14-14-14-14-14-10-10-10-10-10-10-10-10-12-12-12-12-14-14-14-14-|
A#|-------------------------------------------------------------------------------------------------|
F |-------------------------------------------------------------------------------------------------|
A#|-------------------------------------------------------------------------------------------------|

C |-------------------------------------------------18-18-18-18-18-18-18-18-18-18-18-18-18-18-18-18-|
G |-15-15-15-15-15-15-15-15-15-15-15-15-15-15-15-15-x--x--x--x--x--x--x--x--x--x--x--x--x--x--x--x--|
D#|-x--x--x--x--x--x--x--x--x--x--x--x--x--x--x--x--15-15-15-15-15-15-15-15-15-15-15-15-15-15-15-15-|
A#|-12-12-12-12-12-12-12-12-12-12-12-12-12-12-12-12-------------------------------------------------|
F |-------------------------------------------------------------------------------------------------|
A#|-------------------------------------------------------------------------------------------------|

C |-17-17-17-17-17-17-17-17-17-17-17-17-17-17-17-17-17-17-17-17-17-17-17-17-17-17-17-17-17-17-17-17-|
G |-x--x--x--x--x--x--x--x--x--x--x--x--x--x--x--x--x--x--x--x--x--x--x--x--x--x--x--x--x--x--x--x--|
D#|-14-14-14-14-14-14-14-14-14-14-14-14-14-14-14-14-14-14-14-14-14-14-14-14-14-14-14-14-14-14-14-14-|
A#|-------------------------------------------------------------------------------------------------|
F |-------------------------------------------------------------------------------------------------|
A#|-------------------------------------------------------------------------------------------------|

C |-------------------------------------------------------------------------------------------------|
G |-15-15-15-15-15-15-15-15-17-17-17-17-17-17-17-17-18-18-18-18-18-18-18-18-18-18-18-18-18-18-18-18-|
D#|-x--x--x--x--x--x--x--x--x--x--x--x--x--x--x--x--x--x--x--x--x--x--x--x--x--x--x--x--x--x--x--x--|
A#|-12-12-12-12-12-12-12-12-14-14-14-14-14-14-14-14-15-15-15-15-15-15-15-15-15-15-15-15-15-15-15-15-|
F |-------------------------------------------------------------------------------------------------|
A#|-------------------------------------------------------------------------------------------------|

C |-------------------------------------------------------------------------------------------------|
G |-18-18-18-18-18-18-18-18-18-18-18-18-18-18-18-18-17-17-17-17-17-17-17-17-17-17-17-17-17-17-17-17-|
D#|-x--x--x--x--x--x--x--x--x--x--x--x--x--x--x--x--x--x--x--x--x--x--x--x--x--x--x--x--x--x--x--x--|
A#|-15-15-15-15-15-15-15-15-15-15-15-15-15-15-15-15-14-14-14-14-14-14-14-14-14-14-14-14-14-14-14-14-|
F |-------------------------------------------------------------------------------------------------|
A#|-------------------------------------------------------------------------------------------------|

C |-------------------------------------------------------------------------------------------------|
G |-15-15-15-15-15-15-15-15-17-17-17-17-17-17-17-17-18-18-18-18-18-18-18-18-18-18-18-18-18-18-18-18-|
D#|-x--x--x--x--x--x--x--x--x--x--x--x--x--x--x--x--x--x--x--x--x--x--x--x--x--x--x--x--x--x--x--x--|
A#|-12-12-12-12-12-12-12-12-14-14-14-14-14-14-14-14-15-15-15-15-15-15-15-15-15-15-15-15-15-15-15-15-|
F |-------------------------------------------------------------------------------------------------|
A#|-------------------------------------------------------------------------------------------------|

C |-------------------------------------------------------------------------------------------------|
G |-18-18-18-18-18-18-18-18-18-18-18-18-18-18-18-18-17-17-17-17-17-17-17-17-17-17-17-17-17-17-17-17-|
D#|-x--x--x--x--x--x--x--x--x--x--x--x--x--x--x--x--x--x--x--x--x--x--x--x--x--x--x--x--x--x--x--x--|
A#|-15-15-15-15-15-15-15-15-15-15-15-15-15-15-15-15-14-14-14-14-14-14-14-14-14-14-14-14-14-14-14-14-|
F |-------------------------------------------------------------------------------------------------|
A |-------------------------------------------------------------------------------------------------|

C |-15-|  
G |-x--|
D#|-12-|
A#|----|
F |----|
A#|----|

Riff 2  

C |-----| 
G |-----|
D#|-----|
A#|-----|
F |-0-0-|
A#|-0-0-|       
    * *

C |--------------------------------------|
G |--------------------------------------|
D#|--------------------------------------|
A#|--------------------------------------|
F |--------------------------------------|
A#|-12-6-0-5-0-0-3-0-0-3-0-0-3-6-6-6-6-6-|

C |------------------------------------------------------------------------|
G |------------------------------------------------------------------------|
D#|------------------------------------------------------------------------|
A#|------------------------------------------------------------------------|
F |------------------------------------------------------------------------|
A#|-12-10-0-10--0-0-0--0-0--0-0-0-0-12-10-0-10--0-10-0-12-10-12-13--0-13-0-|
          *     * * *  * *  * * * *       *     *    *              *    *  

C |------------------------------------------------------------------------|
G |------------------------------------------------------------------------|
D#|------------------------------------------------------------------------|
A#|------------------------------------------------------------------------|
F |------------------------------------------------------------------------|
A#|-12-10-0-12--0-0-0-----0-0-0-0-0-0-12-6-0-5-0-0-3-0-0-3-0-0-3-6-6-6-6-6-|
          *     * * *     * * * * * *    

C |------------------------------------------------------------------------|
G |------------------------------------------------------------------------|
D#|------------------------------------------------------------------------|
A#|------------------------------------------------------------------------|
F |------------------------------------------------------------------------|
A#|-12-10-0-10--0-0-0--0-0--0-0-0-0-12-10-0-10--0-10-0-12-10-12-13--0-13-0-|
          *     * * *  * *  * * * *       *     *    *              *    *  

C |-------------------------------------------|
G |-------------------------------------------|
D#|-------------------------------------------|
A#|-------------------------------------------|
F |-----------------------------------------0-|
A#|-12-10-0-12--0-0-0-----0-0-0-0-0-0-------0-|
          *     * * *     * * * * * *
Composição de Bring Me the Horizon / Oliver Sykes
Colaboração e revisão:
  • Wesley Almeida
2.109 exibições
    • ½ Tom
    • A
    • Bb
    • B
    • C
    • Db
    • D
    • Eb
    • E
    • F
    • F#
    • G
    • Ab
  • Adicionar à lista

    0 comentários

    Ver todos os comentários

    Conseguiu tocar?

    0 Tocaram 0 Ainda não

    Grave um vídeo tocando Chelsea Smile e nos envie!

    00:00 / 00:00
    Outros vídeos desta música
    Repetir Qualidade Automático
    Outros vídeos desta música
    00:00 / 00:00
    Automático

    Cifra Club Pro

    Aproveite o Cifra Club com benefícios exclusivos e sem anúncios
    Cifra Club Pro
    Aproveite o Cifra Club com benefícios exclusivos e sem anúncios
    OK