Cifra Club

Aprenda

Empire (let Them Sing)

Bring Me The Horizon

Cifra: Principal (violão e guitarra)
tom: F
BRING ME THE HORIZON

EMPIRE


C|-F-A#-D#-G-C

H = Harmonic


0:01
W/EQ FILTER
-------------------------------------------|
-------------------------------------------|
-------------------------------------------|
-------------------------------------------|
15-----------------------------------------|
--13-12-0-0-0-0-0-0-0-0-0-0-0-0-0-0-0-0-0--|
            *     *     *     *     *
-------------------------------------------|
-------------------------------------------|
-------------------------------------------|
-------------------------------------------|
15-----------------------------------------|
--13-12-0-0-0-0-0-0-0-0-0-0-0-0-0-0-0-0-0--|
            *     *     *     *     *
-------------------------------------------|
-------------------------------------------|
-------------------------------------------|
-------------------------------------------|
15-----------------------------------------|
--13-12-0-0-0-0-0-0-0-0-0-0-0-0-0-0-0-0-0--|
            *     *     *     *     *

-------------------------------------------|
-------------------------------------------|
-------------------------------------------|
-------------------------------------------|
15-----------------------------------------|
--13-12-0-0-0-0-0-0-0-0-0-0-0-0-0-0-0-0----|
            *     *     *     *     *   |



0:21



--------------------------------------------------|
-----------------------------------------------H--|
-----------------------------------------------5--|
--------------------------------------------------|
15---------------------------------3--------------|
---13-12-0-0-0-0-0-0-0-0-0-0-0-0-0---1-0-1-0-0----|
             *     *     *     * *           *

--------------------------------------------------|
-----------------------------------------------H--|
-----------------------------------------------5--|
--------------------------------------------------|
15---------------------------------3--------------|
---13-12-0-0-0-0-0-0-0-0-0-0-0-0-0---1-0-1-0-0----|
             *     *     *     * *           *

--------------------------------------------------|
-----------------------------------------------H--|
-----------------------------------------------5--|
--------------------------------------------------|
15---------------------------------3--------------|
---13-12-0-0-0-0-0-0-0-0-0-0-0-0-0---1-0-1-0-0----|
             *     *     *     * *           *
--------------------------------------------------|
-----------------------------------------------H--|
-----------------------------------------------5--|
--------------------------------------------------|
15---------------------------------3--------------|
---13-12-0-0-0-0-0-0-0-0-0-0-0-0-0---1-0-1-0-0----|
             *     *     *     * *           *


0:41

L
-----------------------------------------------------------------------|
-----------------------------------------------------------------------|
-----------------------------------------------------------------------|
-----------------------------------------------------------------------|
15------------15-----------15----------15-----------15-----15----------|
--13-0-0-0-0----13-0-0-0-0---13-0-0-0-0--13-0-0-0-0---13-0---13-0-8/12-|

-----------------------------------------------------------------------|
-----------------------------------------------------------------------|
-----------------------------------------------------------------------|
-----------------------------------------------------------------------|
15------------15-----------15----------15-----------15-----15----------|
--13-0-0-0-0----13-0-0-0-0---13-0-0-0-0--13-0-0-0-0---13-0---13-0-8/12-|

-----------------------------------------------------------------------|
-----------------------------------------------------------------------|
-----------------------------------------------------------------------|
-----------------------------------------------------------------------|
15------------15-----------15----------15-----------15-----15----------|
--13-0-0-0-0----13-0-0-0-0---13-0-0-0-0--13-0-0-0-0---13-0---13-0-8/12-|

-----------------------------------------------------------------------|
-----------------------------------------------------------------------|
-----------------------------------------------------------------------|
-----------------------------------------------------------------------|
15------------15-----------15----------15-----------15-----15----------|
--13-0-0-0-0----13-0-0-0-0---13-0-0-0-0--13-0-0-0-0---13-0---13-0-8/12-|



1:01

 B
-----------------------------------------------------------|
-----------------------------------------------------------|
-----------------------------------------------------------|
-----------------------------------------------------------|
-3-------------------3-------------------3-----3-----3/7---|
---1-0-0-0-------------1-0-0-0-------------1-0---1-0-------|
           |                   |

-----------------------------------------------------------|
-----------------------------------------------------------|
-----------------------------------------------------------|
-----------------------------------------------------------|
-3-------------------3-------------------3-----3-----3/7---|
---1-0-0-0-------------1-0-0-0-------------1-0---1-0-------|
           |                   |


1;11

L
-----------------------------------------------------------------------|
-----------------------------------------------------------------------|
-----------------------------------------------------------------------|
-----------------------------------------------------------------------|
15------------15-----------15----------15-----------15-----15----------|
--13-0-0-0-0----13-0-0-0-0---13-0-0-0-0--13-0-0-0-0---13-0---13-0-8/12-|

R
-----------------------------------------------------------|
-----------------------------------------------------------|
-----------------------------------------------------------|
-----------------------------------------------------------|
-3-------------------3-------------------3-----3-----3/7---|
---1-0-0-0-------------1-0-0-0-------------1-0---1-0-------|
           |                   |

L
-----------------------------------------------------------------------|
-----------------------------------------------------------------------|
-----------------------------------------------------------------------|
-----------------------------------------------------------------------|
15------------15-----------15----------15-----------15-----15----------|
--13-0-0-0-0----13-0-0-0-0---13-0-0-0-0--13-0-0-0-0---13-0---13-0-8/12-|

R
-----------------------------------------------------------|
-----------------------------------------------------------|
-----------------------------------------------------------|
-----------------------------------------------------------|
-3-------------------3-------------------3-----3-----3/7---|
---1-0-0-0-------------1-0-0-0-------------1-0---1-0-------|
           |                   |



1:21

1
-----------------------------------------------------------------|
----------------------------12-----12-----12-----12-----12-----13|
12------------11---------------9-9----9-9----9-9----9-9----9-9---|
-X-------------X-------------------------------------------------|
10-------------9-------------------------------------------------|
-----------------------------------------------------------------|

2
-----------------------------------------------------------------|
-----------------------------------------------------------------|
-----------------------------------------------------------------|
-----------------------------------------------------------------|
-----------------------------------------------------------------|
-0---------------------------5--5--5--5--5--5--3--3--3--8--8--8--|

1
------------------------------------------------------------------|
----------------------------12-----12-----12-----12-----15------15|
12------------11---------------9-9----9-9----9-9----9-9----12-12--|
-X-------------X--------------------------------------------------|
10-------------9--------------------------------------------------|
------------------------------------------------------------------|

2
-----------------------------------------------------------------|
-----------------------------------------------------------------|
-----------------------------------------------------------------|
-----------------------------------------------------------------|
-----------------------------------------------------------------|
-0---------------------------5--5--5--5--5--5--3--3--3--8--8--8--|



W/PAN,DELAY

-10----7-----10----7-----8-----8-----------------------------------|
---8-----8-----8-----8-----8------10---1010---10-8---8-8---8-7---7-|
-----9-----9-----9-----9-----9-------9------9------9-----9-----9---|
-------------------------------------------------------------------|
-------------------------------------------------------------------|
-------------------------------------------------------------------|



1;51


--------------------------------------------------|
-----------------------------------------------H--|
-----------------------------------------------5--|
--------------------------------------------------|
15---------------------------------3--------------|
---13-12-0-0-0-0-0-0-0-0-0-0-0-0-0---1-0-1-0-0----|
             *     *     *     * *           *

--------------------------------------------------|
-----------------------------------------------H--|
-----------------------------------------------5--|
--------------------------------------------------|
15---------------------------------3--------------|
---13-12-0-0-0-0-0-0-0-0-0-0-0-0-0---1-0-1-0-0----|
             *     *     *     * *           *

--------------------------------------------------|
-----------------------------------------------H--|
-----------------------------------------------5--|
--------------------------------------------------|
15---------------------------------3--------------|
---13-12-0-0-0-0-0-0-0-0-0-0-0-0-0---1-0-1-0-0----|
             *     *     *     * *           *
--------------------------------------------------|
-----------------------------------------------H--|
-----------------------------------------------5--|
--------------------------------------------------|
15---------------------------------3--------------|
---13-12-0-0-0-0-0-0-0-0-0-0-0-0-0---1-0-1-0-0----|
             *     *     *     * *           *



2:11

L
-----------------------------------------------------------------|
-----------------------------------------------------------------|
-----------------------------------------------------------------|
-----------------------------------------------------------------|
-3-----------3-----------3-----------3-----------3-----3-----3/7-|
---1-0-0-0-0---1-0-0-0-0---1-0-0-0-0---1-0-0-0-0---1-0---1-0-----|

R
---------------------------------------------------------------|
---------------------------------------------------------------|
---------------------------------------------------------------|
---------------------------------------------------------------|
---------------------------------------------------------------|
-0-------------------------------------------------------------|

L
------------------------------------------------------------|
------------------------------------------------------------|
------------------------------------------------------------|
------------------------------------------------------------|
-3-----------3-----------3-----------3-----------3----------|
---1-0-0-0-0---1-0-0-0-0---1-0-0-0-0---1-0-0-0-0---1-0-0----|

R
---------------------------------------------------------------|
---------------------------------------------------------------|
---------------------------------------------------------------|
---------------------------------------------------------------|
---------------------------------------------------------------|
---------------------------------------------------------------|

 B
-----------------------------------------------------------------|
-----------------------------------------------------------------|
-----------------------------------------------------------------|
-----------------------------------------------------------------|
-3-----------3-----------3-----------3-----------3-----3-----3/7-|
---1-0-0-0-0---1-0-0-0-0---1-0-0-0-0---1-0-0-0-0---1-0---1-0-----|

-----------------------------------------------------------------|
-----------------------------------------------------------------|
-----------------------------------------------------------------|
-----------------------------------------------------------------|
-3-----------3-----------3-----------3-----------3-----3-----3/7-|
---1-0-0-0-0---1-0-0-0-0---1-0-0-0-0---1-0-0-0-0---1-0---1-0-----|

-----------------------------------------------------------------|
-----------------------------------------------------------------|
-----------------------------------------------------------------|
-----------------------------------------------------------------|
-3-----------3-----------3-----------3-----------3-----3-----3/7-|
---1-0-0-0-0---1-0-0-0-0---1-0-0-0-0---1-0-0-0-0---1-0---1-0-----|

-----------------------------------------------------------------|
-----------------------------------------------------------------|
-----------------------------------------------------------------|
-----------------------------------------------------------------|
-3-----------3-----------3-----------3-----------3-----3-----3/7-|
---1-0-0-0-0---1-0-0-0-0---1-0-0-0-0---1-0-0-0-0---1-0---1-0-----|



2:40

1
-----------------------------------------------------------------|
----------------------------12-----12-----12-----12-----12-----13|
12------------11---------------9-9----9-9----9-9----9-9----9-9---|
-X-------------X-------------------------------------------------|
10-------------9-------------------------------------------------|
-----------------------------------------------------------------|

2
-----------------------------------------------------------------|
-----------------------------------------------------------------|
-----------------------------------------------------------------|
-----------------------------------------------------------------|
-----------------------------------------------------------------|
-0---------------------------5--5--5--5--5--5--3--3--3--8--8--8--|

1
-----------------------------------------------------------------------|
----------------------------12-----12-----13------12-------15-------15-|
10-------------9---------------9-9----9-9----14-------12------12-12----|
-X-------------X-------------------------------------------------------|
-8-------------7-------------------------------------------------------|
-----------------------------------------------------------------------|

2
---------------------------------------------------------------------------|
---------------------------------------------------------------------------|
---------------------------------------------------------------------------|
---------------------------------------------------------------------------|
----------3------------------3---------------------------------------------|
0--00-0-0--0-0-000-0--00-0-0--0-0-000--5--5--5--5--5--5--3--3--3--8--8--8--|



3:01

-----------------------------------------------------------------|
-----------------------------------------------------------------|
-----------------------------------------------------------------|
-----------------------------------------------------------------|
-------------------3-------------------------------3-------------|
--0-0---0-0-0--0-0---0--0--0-0-0--0-0---0-0-0--0-0---0--0--0-0-0-|

------------------------------------------------------------------|
------------------------------------------------------------------|
------------------------------------------------------------------|
------------------------------------------------------------------|
------------------------------------------------------------------|
-5-5--5---5-5-5---5-5--5---5-5-5---3-3--3---3-3-3---8-8--8---8-8-8|

-----------------------------------------------------------------|
-----------------------------------------------------------------|
-----------------------------------------------------------------|
-----------------------------------------------------------------|
-------------------3-------------------------------3-------------|
--0-0---0-0-0--0-0---0--0--0-0-0--0-0---0-0-0--0-0---0--0--0-0-0-|

----------------------------------|
----------------------------------|
----------------------------------|
----------------------------------|
----------------------------------|
-5--5--5--5--5--5--3--3--3--8\----|



3:20

--------------------------------------------------|
-----------------------------------------------H--|
-----------------------------------------------5--|
--------------------------------------------------|
15---------------------------------3--------------|
---13-12-0-0-0-0-0-0-0-0-0-0-0-0-0---1-0-1-0-0----|
             *     *     *     * *           *

--------------------------------------------------|
-----------------------------------------------H--|
-----------------------------------------------5--|
--------------------------------------------------|
15---------------------------------3--------------|
---13-12-0-0-0-0-0-0-0-0-0-0-0-0-0---1-0-1-0-0----|
             *     *     *     * *           *

--------------------------------------------------|
-----------------------------------------------H--|
-----------------------------------------------5--|
--------------------------------------------------|
15---------------------------------3--------------|
---13-12-0-0-0-0-0-0-0-0-0-0-0-0-0---1-0-1-0-0----|
             *     *     *     * *           *
--------------------------------------------------|
-----------------------------------------------H--|
-----------------------------------------------5--|
--------------------------------------------------|
15---------------------------------3--------------|
---13-12-0-0-0-0-0-0-0-0-0-0-0-0-0---1-0-1-0-0----|
             *     *     *     * *           *
Composição de Oliver Sykes
Colaboração e revisão:
  • Gabe Jose
1.205 exibições
    • ½ Tom
    • A
    • Bb
    • B
    • C
    • Db
    • D
    • Eb
    • E
    • F
    • F#
    • G
    • Ab
  • Adicionar à lista

    0 comentários

    Ver todos os comentários

    Conseguiu tocar?

    0 Tocaram 0 Ainda não

    Grave um vídeo tocando Empire (let Them Sing) e nos envie!

    00:00 / 00:00
    Outros vídeos desta música
    Repetir Qualidade Automático
    Outros vídeos desta música
    00:00 / 00:00
    Automático

    Cifra Club Pro

    Aproveite o Cifra Club com benefícios exclusivos e sem anúncios
    Cifra Club Pro
    Aproveite o Cifra Club com benefícios exclusivos e sem anúncios
    OK