Eyeless Slipknot Cover

Bring Me The Horizon

Composição de: Slipknot
tom: G
|-12-12-12----12-12-12-12-12-12-12-12-12-12-12|(9x)
|----------16----16-16-16-16-16-16-16-16-16-16|
|---------------------------------------------|
|---------------------------------------------|
|---------------------------------------------|
|---------------------------------------------|

|-------------------|(2x)
|-------------------|
|-------------------|
|-------------------|
|------2----1-------|
|-0-0-3---3---2-0-0-|

|--------------------------| (6x)
|--------------------------|
|--------------------------|
|-------------------------1|
|------2----1---------2---1|
|-0-0-3---3---2-0-0-0---0--|
  . .           . . .   .

|-------------------------------------|(4x)
|-------------------------------------|
|-------------------------------------|
|-------------------------------------|
|-0-0-2-0-2-3-0-5-6-0-6-8-------------|
|-0-0-2-0-2-3-0-5-6-0-6-8-------------|

|--------------|(4x)
|--------------|
|--------------|
|--------------|
|-0-0-2-0-2-3--|
|-0-0-2-0-2-3--|

|-------------------------------------|(4x)
|-------------------------------------|
|-------------------------------------|
|-------------------------------------|
|-0-0-2-0-2-3-0-5-6-0-6-8-------------|
|-0-0-2-0-2-3-0-5-6-0-6-8-------------|

|---------------------------|(4x)
|---------------------------|
|---------------------------|
|-3-3-3--3-3-3-3-3-3--3-3-3-|
|-2-2-2--2-2-2-2-2-2--2-2-2-|
|---------------------------|

|-12-12-12----12-12-12-12-12-12-12-12-12-12-12|(4x)
|----------16----16-16-16-16-16-16-16-16-16-16|
|---------------------------------------------|
|---------------------------------------------|
|---------------------------------------------|
|---------------------------------------------|

|-------------------|(1x)
|-------------------|
|-------------------|
|-------------------|
|------2----1-------|
|-0-0-3---3---2-0-0-|
  . .           . .

|--------------------------| (1x)
|--------------------------|
|--------------------------|
|-------------------------1|
|------2----1---------2---1|
|-0-0-3---3---2-0-0-0---0--|

|--------------|(4x)
|--------------|
|--------------|
|--------------|
|-0-0-2-0-2-3--|
|-0-0-2-0-2-3--|

|-------------------------------------|(4x)
|-------------------------------------|
|-------------------------------------|
|-------------------------------------|
|-0-0-2-0-2-3-0-5-6-0-6-8-------------|
|-0-0-2-0-2-3-0-5-6-0-6-8-------------|

|---------------------------|(4x)
|---------------------------|
|---------------------------|
|-3-3-3--3-3-3-3-3-3--3-3-3-|
|-2-2-2--2-2-2-2-2-2--2-2-2-|
|---------------------------|

|--------------------------------|(1x)
|--------------------------------|
|--------------------------------|
|--------------------------------|
|--------------------------------|
|-0-0-0-3b--0-1-2-0-1-2-0-0-0-3b-|

|----------------------------------|(12x)
|----------------------------------|
|----------------------------------|
|----------------------------------|
|-0-0-0-----0-1-2--0-1-2--0-0-0----|
|-0-0-0-3---0-1-2--0-1-2--0-0-0-3--|

|---------------|(4x)
|---------------|
|---------------|
|---------------|
|---------------|
|-0-4-1-2-------|

|----------------------------------|(10x)
|----------------------------------|
|----------------------------------|
|----------------------------------|
|-0-0-0-----0-1-2--0-1-2--0-0-0----|
|-0-0-0-3b--0-1-2--0-1-2--0-0-0-3b-|

|---------------|
|---------------|
|---------------|
|-0-0-0-0-0-0-0-|
|-0-0-0-0-0-0-0-|
|-0-0-0-0-0-0-0-|

Página 1 / 1

Letras e título
Acordes e artista

resetar configurações
OK