Cifra Club

Aprenda

Happy Song

Bring Me The Horizon

Cifra: Principal (violão e guitarra)
Tom: A#
Afinação: C G C F A D 

INTRO VERSE:
D|-------------------------------------------------
A|-------------------------------------------------
F|-------------------------------------------------
C|-------------------------------------------------
G|-------------15h17-------------------------------
C|--18p0--0-0---------0--0-0---15p0---0--0-0-------

D|-------------------------------------------------
A|-------------------------------------------------
F|-------------------------------------------------
C|-------------------------------------------------
G|-------------15h17-------------------------------
C|--18p0--0-0---------0--0-0---15h17-17-17---------

D|-------------------------------------------------
A|-------------------------------------------------
F|-------------------------------------------------
C|-------------------------------------------------
G|-------------15h17-------------------------------
C|--18p0--0-0---------0--0-0-0--15p0--0-0----------

D|-------------------------------------------------
A|-------------------------------------------------
F|-------------------------------------------------
C|-------------------------------------------------
G|-------------15h17-------------------------------
C|--18p0--0-0---------0--0-0-0--15-15--------------

MAIN RIFF: (repete várias vezes)

D|----------------------------------------------------------------------
A|----------------------------------------------------------------------
F|----------------------------------------------------------------------
C|----------------------------------------------------------------------
G|-----------3h5-------------------------------3h5----------------------
C|--6p0-0-0-------0--000--3p0----00---6p0-0-0-------0--000--3p5--5-5----

CHORUS:
D|----------------------------------------------------------------------
A|----------------------------------------------------------------------
F|----------------------------------------------------------------------
C|----------------------------------------------------------------------
G|--8-------10-------0-------3-------5-------3-------5------------------
C|--8-(x5)--10-(x2)--0-(x6)--3-(x2)--5-(x6)--3-(x2)--5-(x9)-------------

BREAKDOWN:
D|----------------------------------------------------------------------
A|----------------------------------------------------------------------
F|----------------------------------------------------------------------
C|----------------------------------------------------------------------
G|----------------------------------------------------------------------
C|-0-0--0-00--0-15--0-0---0-15--0-0--15--0--12-13-12-15-----------------
                                                                    tmb
Composição de Jordan Fish / Oliver Sykes
Colaboração e revisão:
  • Thaísa Bergamaschi
7.695 exibições
    • ½ Tom
    • A
    • Bb
    • B
    • C
    • Db
    • D
    • Eb
    • E
    • F
    • F#
    • G
    • Ab
  • Adicionar à lista

    0 comentários

    Mostrar mais comentários

    Conseguiu tocar?

    2 Tocaram 0 Ainda não

    Grave um vídeo tocando Happy Song e mande pra gente!

    00:00 / 00:00
    outros vídeos desta música
    repetir qualidade Automático
    Outros vídeos desta música
    00:00 / 00:00
    Automático

    Cifra Club Pro

    Aproveite o Cifra Club com benefícios exclusivos e sem anúncios
    Cifra Club Pro
    Aproveite o Cifra Club com benefícios exclusivos e sem anúncios
    OK