Cifra Club

Aprenda

The House Of Wolves

Bring Me The Horizon

Cifra: Principal (violão e guitarra)
tom: F
BRING ME THE HORIZON

THE HOUSE OF WOLVES

C|-F-A#-D#-G-C

--------------------------------------------|
--------------------------------------------|
--------------------------------------------|
---------10--7-7-9--------------------------|
----------8--5-5-7--------------------------|
-0-0-0-0-------------0-0-0-0-0--0-0-0-0-0---|
   *   *               *   *      *   *

L
--------------------------------------|
--------------------------------------|
--------------------------------------|
---------10--7-7-9--------------------|
----------8--5-5-7---3--5--6---6-6-3--|
-0-0-0-0-------------1--3--4---4-4-1--|
   *   *
R
--------------------------------------|
----------------------------0---------|
----------------------------0---------|
--------------------------------------|
--------------------------------------|
--------------------------------------|



0:06

 B
--------------------------------------------|
--------------------------------------------|
--------------------------------------------|
---------10--7-7-9--------------------------|
----------8--5-5-7--------------------------|
-0-0-0-0-------------0-0-0-0-0--0-0-0-0-0---|
   *   *               *   *      *   *

--------------------------------------|
-------------------------------0------|
-------------------------------0------|
---------10--7-7-9--------------------|
----------8--5-5-7---3--5--6-----6-3--|
-0-0-0-0-------------1--3--4-----4-1--|
   *   *

 B
--------------------------------------------|
--------------------------------------------|
--------------------------------------------|
---------10--7-7-9--------------------------|
----------8--5-5-7--------------------------|
-0-0-0-0-------------0-0-0-0-0--0-0-0-0-0---|
   *   *               *   *      *   *

--------------------------------------|
-------------------------------0------|
-------------------------------0------|
---------10--7-7-9--------------------|
----------8--5-5-7---3--5--6-----6-3--|
-0-0-0-0-------------1--3--4-----4-1--|
   *   *

0:18

L
---------------------------------------------------------------------|
---------------------------------------------------------------------|
---------------------------------------------------------------------|
---------------------------------------------------------------------|
---------------------------------------------------------------------|
-0-00-00--00-000--3-33-33--33-333/8-88-88--88-888--88888888-00000000-|

--------------------------------------------------------------------------|
--------------------------------------------------------------------------|
--------------------------------------------------------------------------|
--------------------------------------------------------------------------|
--------------------------------------------------------------------------|
-0-00-00--00-000--3-33-33--33-333/8-88-88--888-888-8-000000-11111111111111|




0:31

--------------------------------------------|
--------------------------------------------|
--------------------------------------------|
---------10--7-7-9--------------------------|
----------8--5-5-7--------------------------|
-0-0-0-0-------------0-0-0-0-0--0-0-0-0-0---|
   *   *               *   *      *   *

-----------------------------------------|
-----------------------------------------|
-----------------------------------------|
---------10--7-7-9---____----------------|
----------8--5-5-7---)   (---------------|
-0-0-0-0------------1-------4-3-1-3-1-0--|
   *   *

--------------------------------------------|
--------------------------------------------|
--------------------------------------------|
---------10--7-7-9--------------------------|
----------8--5-5-7--------------------------|
-0-0-0-0-------------0-0-0-0-0--0-0-0-0-0---|
   *   *               *   *      *   *

--------------------------|
--------------------------|
--------------------------|
---------10--7-7-9--------|
----------8--5-5-7-3-3-6--|
-0-0-0-0-----------1-1-4--|
   *   *                |



0:44

MELODY
------------------------------------------------------------------|
---13--13--13--13--12--12--12--12--10--10--10--10--8---8---5---5--|
-16--16--16--16--14--14--14--14--12--12--12--12--11--11--7---7----|
------------------------------------------------------------------|
------------------------------------------------------------------|
------------------------------------------------------------------|

RYTHM
-----------------------------------------------------------------|
-----------------------------------------------------------------|
-----------------------------------------------------------------|
-----------------------------------------------------------------|
-----------------------------------------------------------------|
-0-0-0-0-0-0-0-0-0-3-3-3-3-3-3/8-8-8-8-8-8-8-8-8-8-8-8-8-0-0-0-0-|

MELODY
------------------------------------------------------------------|
---13--13--13--13--12--12--12--12--10--10--10--10--8---8----8---8-|
-16--16--16--16--14--14--14--14--12--12--12--12--11--11--10---10--|
------------------------------------------------------------------|
------------------------------------------------------------------|
------------------------------------------------------------------|

RYTHM
------------------------------------------------------------------------|
------------------------------------------------------------------------|
------------------------------------------------------------------------|
------------------------------------------------------------------------|
------------------------------------------------------------------------|
0-0-0-0-0-0-0-0-0-3-3-3-3-3-3/8-8-8-8-8-8-8-8-8-0-0-0-0-1111111111111111|



0;56

L
--------------------------------------|
--------------------------------------|
--------------------------------------|
--------------------------------------|
--------------------------------------|
-0-0-0-0-0-0-0-0-3-3-3-3-4-3-1-3-1-0--|

R
---------------------------------------|
---------------------------------------|
---------------------------------------|
---------------------------------------|
---------------------------------------|
-0----------------3------4-3-1-3-1-0---|



1:00


--------------------------------------------|
--------------------------------------------|
--------------------------------------------|
---------10--7-7-9--------------------------|
----------8--5-5-7--------------------------|
-0-0-0-0-------------0-0-0-0-0--0-0-0-0-0---|
   *   *               *   *      *   *

---------------------------------------|
---------------------------------------|
---------------------------------------|
--------------------9------------------|
---------3---33-5-5-7-------3--33-6-5--|
-0-0-0-0-1---11-3-4---0-0-0-1--11-4-3--|
   *   *              *   *

--------------------------------------------|
--------------------------------------------|
--------------------------------------------|
---------10--7-7-9--------------------------|
----------8--5-5-7--------------------------|
-0-0-0-0-------------0-0-0-0-0--0-0-0-0-0---|
   *   *               *   *      *   *

---------------------------------------|
---------------------------------------|
---------------------------------------|
--------------------9------------------|
---------3---33-5-5-7-------3--33-6-5--|
-0-0-0-0-1---11-3-4---0-0-0-1--11-4-3--|
   *   *              *   *




1:12


MELODY
------------------------------------------------------------------|
---13--13--13--13--12--12--12--12--10--10--10--10--8---8---5---5--|
-16--16--16--16--14--14--14--14--12--12--12--12--11--11--7---7----|
------------------------------------------------------------------|
------------------------------------------------------------------|
------------------------------------------------------------------|

RYTHM
-----------------------------------------------------------------|
-----------------------------------------------------------------|
-----------------------------------------------------------------|
-----------------------------------------------------------------|
-----------------------------------------------------------------|
-0-0-0-0-0-0-0-0-0-3-3-3-3-3-3/8-8-8-8-8-8-8-8-8-8-8-8-8-0-0-0-0-|

MELODY
------------------------------------------------------------------|
---13--13--13--13--12--12--12--12--10--10--10--10--8---8----8---8-|
-16--16--16--16--14--14--14--14--12--12--12--12--11--11--10---10--|
------------------------------------------------------------------|
------------------------------------------------------------------|
------------------------------------------------------------------|

RYTHM
------------------------------------------------------------------------|
------------------------------------------------------------------------|
------------------------------------------------------------------------|
------------------------------------------------------------------------|
------------------------------------------------------------------------|
0-0-0-0-0-0-0-0-0-3-3-3-3-3-3/8-8-8-8-8-8-8-8-8-0-0-0-0-1111111111111111|



1:25

L
------------------------------------------------------------------------|
------------------------------------------------------------------------|
------------------------------------------------------------------------|
------------------------------------------------------------------------|
------------------------------------------------------------------------|
-0-0-0-0-0-0-0-0-3-3-3-3-3-3-3/8-8-8-8-8-8-8-8-8-8-8-8-8-4-3-1-0-3-1-0-0|

R
------------------------------------------------------------------------|
------------------------------------------------------------------------|
------------------------------------------------------------------------|
------------------------------------------------------------------------|
------------------------------------------------------------------------|
-0----------------3------------3/8--------------(8)------4-3-1-0-3-1-0-0|

MELODY
------------------------------------------------------------------|
---13--13--13--13--12--12--12--12--10--10--10--10--8---8----8---8-|
-16--16--16--16--14--14--14--14--12--12--12--12--11--11--10---10--|
------------------------------------------------------------------|
------------------------------------------------------------------|
------------------------------------------------------------------|

RYTHM
---------------------------------------------------------------------|
---------------------------------------------------------------------|
---------------------------------------------------------------------|
---------------------------------------------------------------------|
---------------------------------------------------------------------|
-0-0-0-0-0-0-0-0-0-3-3-3-3-3-3/8-8-8-8-8-8-8-8-8-0-0-0-0-11-11-11-11-|




1:37

 B
-----------------------------------------|
-----------------------------------------|
-----------------------------------------|
-----------------------------------------|
-----------------------------------------|
-0---4-3-1-3-1-0-0---4-3-1-3-1-0-0-------|
                                   |

1:40

CUTS IN
L
--------------------------------------------------|
--------------------------------------------------|
--------------------------------------------------|
--------------------------------------------------|
--------------------------------------------------|
-121212121212121212121212121212121212101010101010-|

L CONT.
---------------------------------------------------|
---------------------------------------------------|
---------------------------------------------------|
---------------------------------------------------|
---------------------------------------------------|
-131313131313131313131313000000-17-15-13-15-13-12--|

 B                                                            L
----------------------------------------------------------------|
----------------------------------------------------------------|
----------------------------------------------------------------|
----------------------------------------------------------------|
--------------------------------------------------------------)-|
-0-----4-3-1-3-1-0-0--4-3-1-3-1-0-0--0--0--4-3-1-3-1-0-0--0--1--|
   |                |




1:53

L
--------------------------------------------------|
--------------------------------------------------|
--------------------------------------------------|
--------------------------------------------------|
--------------------------------------------------|
-121212121212121212121212121212121212101010101010-|
L CONT.
-------------------------------------------------|
-------------------------------------------------|
-------------------------------------------------|
-------------------------------------------------|
-------------------------------------------------|
-131313131313131313131313-0-0-17-15-13-15-13-12--|

R
---------------------------------------------------------------|
---------------------------------------------------------------|
---------------------------------------------------------------|
---------------------------------------------------------------|
---------------------------------------------------------------|
-0-----4-3-1-3-1-0-0--4-3-1-3-1-0-0--0--0--4-3-1-3-1-0-0--0----|
   |                |                                       |

1:59
 B
-------------------------------------------------------|
-------------------------------------------------------|
-------------------------------------------------------|
-------------------------------------------------------|
-------------------------------------------------------|
-0-0-0-0-0-0-0-0-0-0-0-0-0-0-0-0-0-0-10-10-10-10-10-10-|

-------------------------------------------------|
-------------------------------------------------|
-------------------------------------------------|
-------------------------------------------------|
-------------------------------------------------|
-1-1-1-1-1-1-1-1-1-1-1-1-1-1-1-1-1-1-4-3-1-3-1-0-|

-------------------------------------------------------|
-------------------------------------------------------|
-------------------------------------------------------|
-------------------------------------------------------|
-------------------------------------------------------|
-0-0-0-0-0-0-0-0-0-0-0-0-0-0-0-0-0-0-10-10-10-10-10-10-|

-------------------------------------------------|
-------------------------------------------------|
-------------------------------------------------|
-------------------------------------------------|
-------------------------------------------------|
-1-1-1-1-1-1-1-1-1-1-1-1-1-1-1-1-1-1-4-3-1-3-1-0-|




2:12

--------------------------------------------------|
--------------------------------------------------|
--------------------------------------------------|
--------------------------------------------------|
--------------------------------------------------|
-000-0-0-0-000-0-0-0-000-0-0-0-10-10-10-10-10-10--|
 ***   *   ***   *   ***   *

-------------------------------------------------|
-------------------------------------------------|
-------------------------------------------------|
-------------------------------------------------|
-------------------------------------------------|
-1-1-1-1-1-1-1-1-1-1-1-1-1-1-1-1-1-1-4-3-1-3-1-0-|

--------------------------------------------------|
--------------------------------------------------|
--------------------------------------------------|
--------------------------------------------------|
--------------------------------------------------|
-000-0-0-0-000-0-0-0-000-0-0-0-10-10-10-10-10-10--|
 ***   *   ***   *   ***   *

------------------------------------------------|
------------------------------------------------|
------------------------------------------------|
------------------------------------------------|
------------------------------------------------|
-1-1-1-1-1-1-1-1-1-1-1-1-1--1--1--1--1--1--1--1-|



MELODY IN BACKGROUND




2:37


MELODY
------------------------------------------------------------------|
---13--13--13--13--12--12--12--12--10--10--10--10--8---8---5---5--|
-16--16--16--16--14--14--14--14--12--12--12--12--11--11--7---7----|
------------------------------------------------------------------|
------------------------------------------------------------------|
------------------------------------------------------------------|

RYTHM
-----------------------------------------------------------------|
-----------------------------------------------------------------|
-----------------------------------------------------------------|
-----------------------------------------------------------------|
-----------------------------------------------------------------|
-0-0-0-0-0-0-0-0-0-3-3-3-3-3-3/8-8-8-8-8-8-8-8-8-8-8-8-8-0-0-0-0-|

MELODY
------------------------------------------------------------------|
---13--13--13--13--12--12--12--12--10--10--10--10--8---8----8---8-|
-16--16--16--16--14--14--14--14--12--12--12--12--11--11--10---10--|
------------------------------------------------------------------|
------------------------------------------------------------------|
------------------------------------------------------------------|

RYTHM
------------------------------------------------------------------------|
------------------------------------------------------------------------|
------------------------------------------------------------------------|
------------------------------------------------------------------------|
------------------------------------------------------------------------|
0-0-0-0-0-0-0-0-0-3-3-3-3-3-3/8-8-8-8-8-8-8-8-8-0-0-0-0-1111111111111111|

MELODY
------------------------------------------------------------------|
---13--13--13--13--12--12--12--12--10--10--10--10--8---8---5---5--|
-16--16--16--16--14--14--14--14--12--12--12--12--11--11--7---7----|
------------------------------------------------------------------|
------------------------------------------------------------------|
------------------------------------------------------------------|

RYTHM
-----------------------------------------------------------------|
-----------------------------------------------------------------|
-----------------------------------------------------------------|
-----------------------------------------------------------------|
-----------------------------------------------------------------|
-0-0-0-0-0-0-0-0-0-3-3-3-3-3-3/8-8-8-8-8-8-8-8-8-8-8-8-8-0-0-0-0-|

MELODY
------------------------------------------------------------------|
---13--13--13--13--12--12--12--12--10--10--10--10--8---8----8---8-|
-16--16--16--16--14--14--14--14--12--12--12--12--11--11--10---10--|
------------------------------------------------------------------|
------------------------------------------------------------------|
------------------------------------------------------------------|

RYTHM
---------------------------------------------------------------------|
---------------------------------------------------------------------|
---------------------------------------------------------------------|
---------------------------------------------------------------------|
---------------------------------------------------------------------|
-0-0-0-0-0-0-0-0-0-3-3-3-3-3-3/8-8-8-8-8-8-8-8-8-0-0-0-0-11-11-11-11-|



3:02

1 + DELAY
   _______~~~~~~~~~~~~~~~~~~~~~~~~~~
---)-----------------------------------------------------------|
-16------------------------------------------------------------|
-19------------------------------------------------------------|
---------------------------------------------------------------|
---------------------------------------------------------------|
---------------------------------------------------------------|

2
                                                    L
--------------------------------------------------------------|
--------------------------------------------------------------|
--------------------------------------------------------------|
--------------------------------------------------------------|
--------------------------------------------------------------|
0----4-3-1-3-1-0-0----4-3-1-3-1-0-0--0----4-3-1-3-1-0-0--0--0-|

                                                             L
----------------------------------------------------------------|
----------------------------------------------------------------|
----------------------------------------------------------------|
----------------------------------------------------------------|
-7-----------------7------------------------------------------)-|
-0-----4-3-1-3-1-0-0--4-3-1-3-1-0-0--0--0--4-3-1-3-1-0-0--0--1--|
   |                |

-------------------------------------------------------------|
-------------------------------------------------------------|
-------------------------------------------------------------|
-------------------------------------------------------------|
-------------------------------------------------------------|
-0-----4-3-1-3-1-0-0--4-3-1-3-1-0-0--0--0--4-3-1-3-1-0-0--0--|
   |                |

-----------------------------|
-----------------------------|
-----------------------------|
-----------------------------|
-----------------------------|
-4-3-1-3-1-0-----------------|
Composição de Oliver Sykes
Colaboração e revisão:
  • Gabe Jose
2.527 exibições
    • ½ Tom
    • A
    • Bb
    • B
    • C
    • Db
    • D
    • Eb
    • E
    • F
    • F#
    • G
    • Ab
  • Adicionar à lista

    0 comentários

    Ver todos os comentários

    Conseguiu tocar?

    0 Tocaram 0 Ainda não

    Grave um vídeo tocando The House Of Wolves e nos envie!

    00:00 / 00:00
    Outros vídeos desta música
    Repetir Qualidade Automático
    Outros vídeos desta música
    00:00 / 00:00
    Automático

    Cifra Club Pro

    Aproveite o Cifra Club com benefícios exclusivos e sem anúncios
    Cifra Club Pro
    Aproveite o Cifra Club com benefícios exclusivos e sem anúncios
    OK