Cifra Club

Aprenda

Traitors Never Play Hangman

Bring Me The Horizon

Cifra: Principal (violão e guitarra)
tom: Bm
(0:03)
E|-------------|
B|-------------|
G|-------------|
D|-------------|
A|-5--5--5--5--|
D|-------------|
pm .  .  .  .

(0:06)
E|-------------------------------|
B|----------------8p0-----7p0----|
G|--------------7-------7--------|
D|-----7------7-------7----------|  (8x)
A|---5---5-----------------------|
D|-0-------0---------------------|

(0:35)
E|-------------------------|
B|-------------------------|
G|-7-----------------------|
D|--------7----------------|
A|------5---5---5----------|
E|----0-------0------------|
pm              .

(0:40)
E|-------------------------------|
B|----------------8p0-----7p0----|
G|--------------7-------7--------|
D|-----7------7-------7----------|  (8x)
A|---5---5-----------------------|
D|-0-------0---------------------|

(1:08)
E|---------------------------------------|
B|---------------------------------------|
G|-----7-7/9-------9-9/11--------11\6----|
D|-----7-7/9-------9-x/x-----------------|
A|---5-5-5/7-----7-7-7/9------9----------|
D|-0-----------0------------0------------|

(1:11)
E|--------------------------|
B|-------7-7-7--------------|
G|-------7-7-7--------------|
D|-------7-7-7--------------|  (3x)
A|-5-5-5-5-5-5----5-5-5-5\1-|
D|-0-0-0----------0-0-0-----|

(1:21)
E|---------------------|
B|-------7-7-7-7-------|
G|-------7-7-7-7-------|
D|-------7-7-7-7-------|
A|-5-5-5-5-5-5-5-------|
D|-0-0-0---------------|

(1:25)
E|------------------------|
B|-7---7---7---7---7------|
G|-7---7---7---7---7------|
D|-7---7---7---7---7------|
A|-5---0---5---0---5------|
D|-0---0---0---0---0------|

(1:42)
E|----------------------------------------|
B|----------------------------------------|
G|------------6---4-------------7/9---9\6-|
D|---0---0---0---0-----0---0---0-----0----|  (3x)
A|--5-5-5-5-5---5-----5-5-5-5-7-----9-----|
D|-0---0-------------0---0----------------|

(2:03)
E|------------------|
B|------------------|
G|------------6---4-|
D|---0---0---0---0--|
A|--5-5-5-5-5---5---|
D|-0---0------------|

(2:10)
E|------------------------------------------------------------------|
B|------------------------------------------------------------------|
G|------------------------------------------------------------------|
D|---0---0---0---0---0---0---0---0---0---0---0---0---0---0---0---9--|
A|--5-5-5-5-5-5-5-5-4-4-4-4-4-4-4-4-7-7-7-7-7-7-7-7-9-9-9-9-9-9-9-9-|
D|-0---0---0---0---0---0---0---0---0---0---0---0---0---0---0---0----|

(2:23)
E|------------------------------------------------------------------|
B|------------------------------------------------------------------|
G|------------------------------------------------------------------|
D|---0---0---0---0---0---0---0---0---0---0---0---0---0---0---0---0--|
A|--5-5-5-5-5-5-5-5-4-4-4-4-4-4-4-4-5-5-5-5-5-5-5-5-7-7-7-7-9-9-9-9-|
D|-0---0---0---0---0---0---0---0---0---0---0---0---0---0---0---0---0|

(2:38)
E|---|
B|7--|
G|7--|
D|7--|
A|5--|
D|0--|

(3:15)
E|------------------------|
B|-7---7---7---7---7------|
G|-7---7---7---7---7------|
D|-7---7---7---7---7------|
A|-5---0---5---0---5------|
D|-0---0---0---0---0------|

(3:36)
E|-----|
B|-----|
G|-----|
D|----1|
A|--1--|
D|1----|
h * * *
Composição de Bring Me the Horizon / Oliver Sykes
Colaboração e revisão:
  • Alfredo Jr.
453 exibições
    • ½ Tom
    • Am
    • Bbm
    • Bm
    • Cm
    • C#m
    • Dm
    • Ebm
    • Em
    • Fm
    • F#m
    • Gm
    • G#m
  • Adicionar à lista

    0 comentários

    Ver todos os comentários

    Conseguiu tocar?

    0 Tocaram 0 Ainda não

    Grave um vídeo tocando Traitors Never Play Hangman e nos envie!

    00:00 / 00:00
    Outros vídeos desta música
    Repetir Qualidade Automático
    Outros vídeos desta música
    00:00 / 00:00
    Automático

    Cifra Club Pro

    Aproveite o Cifra Club com benefícios exclusivos e sem anúncios
    Cifra Club Pro
    Aproveite o Cifra Club com benefícios exclusivos e sem anúncios
    OK