Users interested in Traitors Never Play Hangman Tab by Bring Me The Horizon are also interested in these tabs: Pray For Plagues Tab by Bring Me The Ho

Bring Me The Horizon

Composição de: Oliver sykes
tom: B
. palm mute
/ slide
* pinch harmonic
h hammer on
p pull off

(part 1 - repeated once)
C#|------------------------------------------------------------------|
G#|------------------------------------------------------------------|
E |------------------------------------------------------------------|
B |-----------0-------6h9p6h9p6h9--5h8p5h8p5h8-----------------------|
F#|--0-0-0-0--0------------------------------------------------------|
B |--0-0-0-0--0--0-0-------------------------------------------------|
     . . . .     . .

C#|------------------------------------------------------------------|
G#|------------------------------------------------------------------|
E |--------------------------------------7-8-10----------------------|
B |-----------0-------------5-7-8-7-8-10-----------------------------|
F#|--0-0-0-0--0-------5-7-8------------------------------------------|
B |--0-0-0-0--0--0-0-------------------------------------------------|
     . . . .     . .

C#|------------------------------------------------------------------|
G#|------------------------------------------------------------------|
E |------------------------------------------------------------------|
B |-----------0-------6h9p6h9p6h9--5h8p5h8p5h8-----------------------|
F#|--0-0-0-0--0------------------------------------------------------|
B |--0-0-0-0--0--0-0-------------------------------------------------|
     . . . .     . .

C#|------------------------------------------------------------------|
G#|------------------------------------------------------------------|
E |----------------------------------8-10-12-10-8-7------------------|
B |-----------0--------------8-10-12---------------------------------|
F#|--0-0-0-0--0-------7-8-10-----------------------------------------|
B |--0-0-0-0--0--0-0-------------------------------------------------|
     . . . .     . .

C#|------------------------------------------------------------------|
G#|------------------------------------------------------------------|
E |------------------------------------------------------------------|
B |--5h8p5h8p5h8p5h8-[hold-note]-------------------------------------|
F#|------------------------------------------------------------------|
B |------------------------------------------------------------------|

(part 2 - repeated once)
C#|------------------------------------------------------------------|
G#|------------------------------------------------------------------|
E |------------------------------------------------------------------|
B |-----------0-------6h9p6h9p6h9--5h8p5h8p5h8-----------------------|
F#|--0-0-0-0--0------------------------------------------------------|
B |--0-0-0-0--0--0-0-------------------------------------------------|
     . . . .     . .

C#|------------------------------------------------------------------|
G#|------------------------------------------------------------------|
E |-------------------12*--------------------------------------------|
B |-----------0------------------------------------------------------|
F#|--0-0-0-0--0------------------------------------------------------|
B |--0-0-0-0--0--0-0-------------------------------------------------|
     . . . .     . .

C#|------------------------------------------------------------------|
G#|------------------------------------------------------------------|
E |------------------------------------------------------------------|
B |-----------0-------6h9p6h9p6h9--5h8p5h8p5h8-----------------------|
F#|--0-0-0-0--0------------------------------------------------------|
B |--0-0-0-0--0--0-0-------------------------------------------------|
     . . . .     . .

C#|------------------------------------------------------------------|
G#|------------------------------------------------------------------|
E |----------------------------------8-10-12-12*/--------------------|
B |-----------0--------------8-10-12---------------------------------|
F#|--0-0-0-0--0-------7-8-10-----------------------------------------|
B |--0-0-0-0--0--0-0-------------------------------------------------|
     . . . .     . .

C#|------------------------------------------------------------------|
G#|-----13/12---13/12------------------------------------------------|
E |-----16/15---16/15------------------------------------------------|
B |------------------------------------------------------------------|
F#|--0--------0------------------------------------------------------|
B |--0--------0------------------------------------------------------|
     .        .

(breakdown - repeated four times)
C#|------------------------------------------------------------------|
G#|-----------17-17-17----------15-[down-fret-board]-----------------|
E |-----------20-20-20----------18-[down-fret-board]-----------------|
B |------------------------------------------------------------------|
F#|--0-0-0--0----------0-0-0--0--------------------------------------|
B |--0-0-0--0----------0-0-0--0--------------------------------------|
     . . .  .          . . .  .

(bridge)
C#|------------------------------------------------------------------|
G#|------------------------------------------------------------------|
E |------------------------------------------------------------------|
B |------------------------------------------------------------------|
F#|-------------------------------7-8--------------------------------|
B |--0-0-0--0-0-0--0-0-0--0-0-0--------------------------------------|
     . . .  . . .  . . .  . . .

C#|------------------------------------------------------------------|
G#|------------------------------------------------------------------|
E |------------------------------------------------------------------|
B |------------------------------10-8-7-------8-7-5------------------|
F#|-------------------------------------10-8-7-------8-7-5-----------|
B |--0-0-0--0-0-0--0-0-0--0-0-0--------------------------------------|
     . . .  . . .  . . .  . . .

C#|------------------------------------------------------------------|
G#|------------------------------------------------------------------|
E |--------[second-guitar-plays---9-10]------------------------------|
B |------------------------------------------------------------------|
F#|-------------------------------7-8--------------------------------|
B |--0-0-0--0-0-0--0-0-0--0-0-0--------------------------------------|
     . . .  . . .  . . .  . . .

C#|------------------------------------------------------------------|
G#|------------------------------------------------------------------|
E |------------------------------------------------------------------|
B |------------------------------10-8-7--------8-7-5-----------------|
F#|-------------------------------------10-8-7-------8-7-5-----------|
B |--0-0-0--0-0-0--0-0-0--0-0-0--------------------------------------|
     . . .  . . .  . . .  . . .

C#|------------------------------------------------------------------|
G#|------------------------------------------------------------------|
E |------------------------------------------------------------------|
B |--8----5----------------------------------------------------------|
F#|--8----5----[foresaken]-------------------------------------------|
B |--8----5----------------------------------------------------------|

C#|------------------------------------------------------------------|
G#|------------------------------------------------------------------|
E |------------------------------------------------------------------|
B |----------------------------------10-8-7--------------------------|
F#|----------------7-8----------------------8-7-5--------------------|
B |--0-0-0--0-0-0-------0-0-0--0-0-0---------------------------------|
     . . .  . . .       . . .  . . .

C#|------------------------------------------------------------------|
G#|------------------------------------------------------------------|
E |---------------[9-10]---------------------------------------------|
B |----------------------------------10-8-7----------8----5----------|
F#|----------------7-8----------------------8-7-5----8----5----------|
B |--0-0-0--0-0-0-------0-0-0--0-0-0-----------------8----5----------|
     . . .  . . .       . . .  . . .

C#|------------------------------------------------------------------|
G#|------------------------------------------------------------------|
E |------------------------------------------------------------------|
B |----------------------------------10-8-7--------------------------|
F#|----------------7-8----------------------8-7-5--------------------|
B |--0-0-0--0-0-0-------0-0-0--0-0-0---------------------------------|
     . . .  . . .       . . .  . . .

C#|------------------------------------------------------------------|
G#|------------------------------------------------------------------|
E |---------------[9-10]---------------------------------------------|
B |----------------------------------10-8-7--------------------------|
F#|----------------7-8----------------------8-7-5--------------------|
B |--0-0-0--0-0-0-------0-0-0--0-0-0---------------------------------|
     . . .  . . .       . . .  . . .

C#|------------------------------------------------------------------|
G#|------------------------------------------------------------------|
E |------------------------------------------------------------------|
B |--8----5----------------------------------------------------------|
F#|--8----5----[foresaken]-------------------------------------------|
B |--8----5----------------------------------------------------------|

C#|---------------|-----------|--------------------------------------|
G#|---------------|-----------|--------------------------------------|
E |---------------|-----------|--------------------------------------|
B |---------------|-----------|------------------1-0-----------------|
F#|--0-0-0-0-0-0--|-0-0-0-0-0-|--0-0-0-0-0---0-0-1-0-----------------|
B |--0-0-0-0-0-0--|-0-0-0-0-0-|--0-0-0-0-0---0-0-1-0-----------------|
     . . . . . .    . . . . .    . . . . .   . .

C#|------------------------------------------------------------------|
G#|------------------------------------------------------------------|
E |------------------------------------------------------------------|
B |--0--0-0-0--0-----------------------------------------------------|
F#|--0--0-0-0--0--am-i-speaking-these-words--------------------------|
B |--0--0-0-0--0-----------------------------------------------------|
     .  . . .  .

C#|------------------------------------------------------------------|
G#|------------------------------------------------------------------|
E |------------------------------------------------------------------|
B |--0--0-0-0--0-----------------------------------------------------|
F#|--0--0-0-0--0--and-im-talking-to-the-mirror-----------------------|
B |--0--0-0-0--0-----------------------------------------------------|
     .  . . .  .

(ending - repeat until fade out)

C#|------------------------------------------------------------------|
G#|--------------------12-12---------------------17-17---------------|
E |--------------------15-15---------------------20-20---------------|
B |-----------0-------------------------0----------------------------|
F#|--0-0-0-0--0--0-0-----------0-0-0-0--0--0-0-----------------------|
B |--0-0-0-0--0--0-0-----------0-0-0-0--0--0-0-----------------------|
     . . . .     . .           . . . .     . .
Página 1 / 1

Letras e título
Acordes e artista

resetar configurações
OK