Cifra Club

(You Drive Me) Crazy

Britney Spears

Tab de baixo: Principal
exibições 1.109
Common Time(4/4)
Drop Bb Tuning on 5 String Bass(BbEADG)


INTRO:
G |---------|---------|---5p--------5p--|---------|---5p--------5p--|
D |---------|---------|-----------------|---------|-----------------|
A |-r-e-s-t-|-r-e-s-t-|-3---------------|-r-e-s-t-|-3---------------|
E |---------|---------|-----3-3-4-4---r-|---------|-----3-3-4-4---r-|
Bb|---------|---------|-----------------|---------|-----------------|  
    1 2 3 4   1 2 3 4   1 & 2 & 3 & a 4   1 2 3 4   1 & 2 & 3 & a 4 

G |-----------|
D |-----------|
A |-----------|
E |-3---------|
Bb|---r-2---r-|
    1 2 & 3 4


VERSES 1 & 2:
                                              (x3)  
G |---------|---------|----5p------5p--|----------|
D |---------|---------|*---------------|---------*|
A |---------|-r-e-s-t-|--3-------------|-r-e-s-t--|
E |---3-4-r-|---------|*-----3-4-----r-|---------*|
Bb|-2-------|---------|----------------|----------|
    1 2 3 4   1 2 3 4    1 & 2 3 & a 4   1 2 3 4


PRE-CHORUS:
G |--5p---------|---------3-|-1-------|---------|
D |-------------|-----------|---------|---------|
A |*|-----------|---------|-r-e-s-t-|
E |-1-----1-----|-3---------|---------|---------|
Bb|-------------|-----2-r---|---------|---------|
    1 & 2 & 3 4   1 2 & 3 4   1 2 3 4   1 2 3 4


CHORUS:
G |---5p--------5p--|---------|---5p--------5p--|-----------|
D |-----------------|---------|-----------------|-----------|
A |-3---------------|-r-e-s-t-|-3---------------|-----------|
E |-----3-3-4-4---r-|---------|-----3-3-4-4---r-|-3---------|
Bb|-----------------|---------|-----------------|---r-2---r-|
    1 & 2 & 3 & a 4   1 2 3 4   1 & 2 & 3 & a 4   1 2 & 3 4 

G |---5p--------5p--|-----------|---5p--------5p--|---------|
D |-----------------|-----------|-----------------|---------|
A |-3---------------|-------6-5-|-3---------------|*|
E |-----3-3-4-4---r-|-6---------|-----3-3-4-4---r-|-3-.*|
Bb|-----------------|-----------|-----------------|---0-2-r-|
    1 & 2 & 3 & a 4   1 2 & 3 4   1 & 2 & 3 & a 4   1 2 3 4


INTERLUDE:
G |---------|---5p------5p--|---------|---5p--------5p--|---------|
D |---------|---------------|---------|-----------------|---------|
A |-r-e-s-t-|-3-------------|-r-e-s-t-|-3---------------|-r-e-s-t-|
E |---------|-----3-------r-|---------|-----3-3-4-4---r-|---------|
Bb|---------|---------------|---------|-----------------|---------|
    1 2 3 4   1 & 2 3 & a 4   1 2 3 4   1 & 2 & 3 & a 4   1 2 3 4

G |---5p--------5p--|---------|---------|---------|---------|
D |-----------------|---------|---------|---------|---------|
A |-3---------------|-r-e-s-t-|-r-e-s-t-|-r-e-s-t-|-r-e-s-t-|
E |-----3-3-4-4---r-|---------|---------|---------|---------|
Bb|-----------------|---------|---------|---------|---------|
    1 & 2 & 3 & a 4   1 2 3 4   1 2 3 4   1 2 3 4   1 2 3 4

G |-----------------|-----------------|
D |-----------------|-----------------|
A |-3-2-3-2-3-2-3-2-|-3-2-3-2-3-2-3-2-|
E |-----------------|-----------------|
Bb|-----------------|-----------------|
    1 & 2 & 3 & 4 &   1 & 2 & 3 & 4 &


END:
G |----5p--------5p--|---------|---5p--------5p--|-----------|
D |*-----------------|---------|-----------------|-----------|
A |--3---------------|-r-e-s-t-|-3---------------|-----------|
E |*-----3-3-4-4---r-|---------|-----3-3-4-4---r-|-3---------|
Bb|------------------|---------|-----------------|---r-2---r-|
     1 & 2 & 3 & a 4   1 2 3 4   1 & 2 & 3 & a 4   1 2 & 3 4 

G |---5p--------5p--|-----------|---5p--------5p--|----------|
D |-----------------|-----------|-----------------|---------*|
A |-3---------------|-------6-5-|-3---------------|*| (x3)
E |-----3-3-4-4---r-|-6---------|-----3-3-4-4---r-|-3-.**|
Bb|-----------------|-----------|-----------------|---0-2-r--|
    1 & 2 & 3 & a 4   1 2 & 3 4   1 & 2 & 3 & a 4   1 2 3 4

G |---5p--------5p--|---------|---5p--------5p--|-----------|
D |-----------------|---------|-----------------|-----------|
A |-3---------------|-r-e-s-t-|-3---------------|-----------|
E |-----3-3-4-4---r-|---------|-----3-3-4-4---r-|-3---------|
Bb|-----------------|---------|-----------------|---r-2---r-|
    1 & 2 & 3 & a 4   1 2 3 4   1 & 2 & 3 & a 4   1 2 & 3 4 

G |---5p--------5p--|-----------|---------|---------|
D |-----------------|-----------|---------|---------|
A |-3---------------|-------6-5-|-3-------|*|
E |-----3-3-4-4---r-|-6---------|-----4---|-3-.*|
Bb|-----------------|-----------|---------|---0-2-r-|
    1 & 2 & 3 & a 4   1 2 & 3 4   1 2 3 4   1 2 3 4


By: Johari Taylor
E-mail: *, or *
More Bass Tabs: http://*~viking/*





 




0 comentários

    mostrar mais comentários

    Conseguiu tocar?

    0tocaram0ainda não

    Grave um vídeo tocando (You Drive Me) Crazy e mande pra gente!

    00:00 / 00:00
    outros vídeos desta música
    repetirqualidadeautomática
    Outro vídeos desta música
      00:00 / 00:00
      automática
      OK