Cifra Club

74 Shoreline

Broken Social Scene

Cifra: Principal (violão e guitarra)
tom: E
Intro Is As Follows:

E-----------------------------|
B--------------------4--------|
G----1-------2-1--------------|
D-----------------------------|
A-----------------------------|
E--0----0-0-------0-----------|


And The Horn Solos/ Big Jam At The End:

E--7-7-777-5-4-5-2-4-222-4-0-0-0--|
B---------------------------------|
G---------------------------------|
D---------------------------------|
A---------------------------------|
E---------------------------------|

It's All I Have So Far, Tabbed Out By Ear in About 10 Minutes, so if you have the chords 
the middle and what not, feel free to add or send to me

Thanks, *
00:00 / 00:00
Outros vídeos desta música
Repetir
Outros vídeos desta música
Composição de Andrew Whiteman / Brendan Canning / Charles Spearin / Jason Collett / Justin Peroff / Kevin Drew / Leslie Feist
555 exibições
    • ½ Tom
    • A
    • Bb
    • B
    • C
    • Db
    • D
    • Eb
    • E
    • F
    • F#
    • G
    • Ab
  • Adicionar à lista

    0 comentários

    Ver todos os comentários

    Conseguiu tocar?

    0 Tocaram 0 Ainda não

    Grave um vídeo tocando 74 Shoreline e nos envie!

    Entre para oCifra Club PRO

    Tenha acesso a benefícios exclusivos no App e no Site

    • Chega de anúncios

    • Prioridade de compra em lançamentos

    • Mais recursos no app do Afinador

    • Atendimento Prioritário

    • Descontos nos produtos Cifra Club

    • Ajude a produzir mais conteúdo

    00:00 / 00:00

    Cifra Club Pro

    Aproveite o Cifra Club com benefícios exclusivos e sem anúncios
    Cifra Club Pro
    Aproveite o Cifra Club com benefícios exclusivos e sem anúncios
    OK