Cifra Club

Aprenda

Tears Of The Dragon

Bruce Dickinson

Cifra: Versão 5 (violão e guitarra)
Já pensou em usar uma coleção de roupas do Cifra Club? Responda as perguntas abaixo e nos ajude nessa missão! →
tom: G
Riff1
    Am                                       C               Cadd9
e|---------------------------------|-----------------------------------|
B|------1-----0-----1-----0-----0h1|------1-----0-1---3-----1------0h1-|
G|--------2-----2-----2-----2------|--------0-----------0------0-------|
D|----2-----2-----2-----2-----2----|----2-----2-----------2------2-----|
A|--0------------------------------|--3-------------3------------------|
E|---------------------------------|-----------------------------------|

Riff2
e|----------------|
B|--3--1--0h1p0---|
G|-------------2--|

Refrão (Guitarra 2)
e|--------------------|--------------------------|
B|--------------------|--------------------------|
G|--------------------|--------------------------|
D|--4-5--4-5--4-5--7-7|--4-5--4--------5-5--7-7--|
A|--------------------|--------5--55-------------|
E|--------------------|--------------------------|

e|--------------------|----------------------------|
B|--------------------|----------------------------|
G|--------------------|----------------------------|
D|--4-5--4-5--4-5--7-7|--4-99-7-5-7-5----5-5--7-7--|
A|--------------------|----------------5-----------|
E|--------------------|----------------------------|

Intro: Riff1 2x

Tocar com o Riff1
Am
  For too long now 
C            Cadd9         Am
  There were secrets in my mind
  For too long now
C            Cadd9                Am
  There were things I should have said
  In the darkness 
C       Cadd9             Am
  I was stumbling for the door
  To find a reason
C             Cadd9                Am
  To find the time, the place, the hour
 
                  Em
  Waiting for the winter sun
          G             D   Riff2
  And the cold light of day
Am                    Em
  The misty ghosts of childhood fears
      G
  The pressure is building
        D
  And I can't stay away

Refrão
  Em      C      G      D
I throw myself into the sea 
  Em        C
Release the wave 
       G         D
Let it wash over me
   Em       C
To face the fear 
  G      D
I once believed 
    Em            C
The tears of the dragon 
    G           D
For you and for me

Tocar com o Riff1
Am
  Where I was 
C       Cadd9               Am
  I had wings that couldn't fly
  Where I was
C       Cadd9            Am
  I had tears I couldn't cry
  My emotions 
C        Cadd9     Am
  Frozen in an icy lake
  I couldn't feel them
C           Cadd9        Am
  Until the ice began to break
                Em
I have no power over this
    G         D   Riff2
You know I'm afraid
    Am                Em
The walls I built are crumblig
    G
The water is moving 
    D
I'm slipping away

Refrão
  Em      C      G      D
I throw myself into the sea 
  Em        C
Release the wave 
       G         D
Let it wash over me
   Em       C
To face the fear 
  G      D
I once believed 
    Em            C
The tears of the dragon 
    G           D
For you and for me

SOLO

Am         Em
  Slowly I awake
  G        D   Riff2  
  Slowly I rise
     Am                 Em
  The walls I built are crumblig
      G
  The water is moving 
      D
  I'm slipping away

Refrão 2x
  Em      C      G      D
I throw myself into the sea 
  Em        C
Release the wave 
       G         D
Let it wash over me
   Em       C
To face the fear 
  G      D
I once believed 
    Em            C
The tears of the dragon 
    G           D
For you and for me

Final dedilhado:
e|-------------------------------------------------------------0------|
B|--0-----1-----1---0-----1-----1------0-----1-----1------------------|
G|----2-----2-----2---0-----0-----0------2-----2-----2-----0----------|
D|------2-----2---------0-----0------------3-----3-------2---2--------|
A|--0-----------------------------------------------------------------|
E|------------------3------------------1---------------0--------------|
Composição de Bruce Dickinson
Colaboração e revisão:
  • Diego Haim
8.469 exibições
  • Simplificar cifra
    • ½ Tom
    • A
    • Bb
    • B
    • C
    • Db
    • D
    • Eb
    • E
    • F
    • F#
    • G
    • Ab
  • Adicionar à lista

    0 comentários

    Ver todos os comentários

    Conseguiu tocar?

    0 Tocaram 0 Ainda não

    Grave um vídeo tocando Tears Of The Dragon e nos envie!

    00:00 / 00:00
    outros vídeos desta música
    repetir qualidade Automático
    Outros vídeos desta música
    00:00 / 00:00
    Automático
    Capítulos
    • Início
    • Tocando a música
    • Acordes da Primeira Parte
    • Tocando Primeira Parte
    • Ensinando Ritmo da Primeira Parte
    • Acordes da Segunda Parte
    • Tocando Segunda Parte
    • Ensinando Ritmo da Segunda Parte
    • Tocando Refrão
    • Acordes da Terceira Parte
    • Tocando Terceira Parte
    • Ensinando Terceira Parte
    • Acordes da Quarta Parte
    • Tocando Quarta Parte
    • Ensinando Ritmo da Quarta Parte
    • Acordes do Final
    • Tocando Final
    • Encerramento

    Cifra Club Pro

    Aproveite o Cifra Club com benefícios exclusivos e sem anúncios
    Cifra Club Pro
    Aproveite o Cifra Club com benefícios exclusivos e sem anúncios
    OK