Cifra Club

Aprenda

Tears Of The Dragon

Bruce Dickinson

Tab de baixo: Principal
(entrar no primeiro refrão)



VERSO:

G ------------------------------------------- |
D --------5--3----------------3--3-5--------- | x4
A --0---0-------5-3------3-5---------0------- |
E ------------------------------------------- |



SEMI-REFRÃO:

G ----------------------------------------------------------------------------
D -----------2---5-----------------2---5--5-5-5--5--5-5-5---------------------
A --0---0--3--------5-----0---0--3------------------------5--5-5-5--5--5-5-5--
E ----------------------------------------------------------------------------



REFRÃO:

G ------------------------------------------------
D --2--2-2-0-----------5--5-5-2-------------------
A -----------3--3-3-------------5--5-5------------
E ------------------------------------------------



LOGO APÓS O SOLO:

Ele toca de formas diferentes, escute a música pra saber quando tocar cada uma.

G -------------|     G -------------------------------------
D -------------|     D -------------------------------------
A ---------0---|     A ----0------0------0------0------0----
E --0-3-0------|     E --0------0------0------0------0------



PRIMEIRO VERSO APÓS O SOLO:

G ------------------------------------------------------
D ---------2------5-----------------2------5------------
A --0------------------5----0-------------------5----0--
E ------------------------------------------------------



ÚLTIMO REFRÃO:

G --------------------------------------------------------
D ---2-2-2-2-2--0----------------5-5-5-5-5--2-------------
A -----------------3-3-3-3-3--3----------------0-0-0-0-0--
E --------------------------------------------------------

_______________________________________________________
Contribuição: Leonardo Henrique M Franco(lhmf@metalink.com.br)
Composição de Bruce Dickinson
29.670 exibições

0 comentários

Ver todos os comentários

Conseguiu tocar?

1 Tocaram 1 Ainda não

Grave um vídeo tocando Tears Of The Dragon e nos envie!

00:00 / 00:00
outros vídeos desta música
repetir qualidade Automático
Outros vídeos desta música
00:00 / 00:00
Automático

Cifra Club Pro

Aproveite o Cifra Club com benefícios exclusivos e sem anúncios
Cifra Club Pro
Aproveite o Cifra Club com benefícios exclusivos e sem anúncios
OK