Alçapão

Bruno e Marrone

Composição de: Felipe-bruno
tom: F
 Intro: Dm A7 Dm A7 Dm
E|-----------|-----------------|-----------------|-----------------|
B|-4---4-----|-6-6-6-4-3-4-3---|-4-4-4-3---3-----|-----------------|
G|---5---5-4-|---------------5-|---------5---5-4-|-4-5-4---4-5-4---|
D|-----------|-----------------|-----------------|-------5-------5-|
A|-----------|-----------------|-----------------|-----------------|
E|-----------|-----------------|-----------------|-----------------|

E|-----------|-------------------|-----------------|-----------------|
B|-4---4-----|-6-6-6-6-6-6/8-6-4-|-4-4-4-3---3-----|-----------------|
G|---5---5-4-|-------------------|---------5---5-4-|-4-5-4---4-5-4---|
D|-----------|-------------------|-----------------|-------5-------5-|
A|-----------|-------------------|-----------------|-----------------|
E|-----------|-------------------|-----------------|-----------------|

                                         A7
Você acha fácil chegar dizendo que vai embora
                                               Dm
Que já se cansou, que se apaixonou por outra pessoa
              Gm                            Dm
feito um passarinho que fez um ninho na sua mão
           A7                                Dm
Tão apaixonado eu fiquei trancado em seu alçapão
            C                                F
Eu nunca pensei que o nosso amor fosse uma mentira
            C                              F
E que me iludia quando pedia os carinhos meus
           Gm                  Dm
Eu te dei amor demais te amei como ninguém
         Gm             A7              D
E agora vem sem ter piedade dizendo adeus

                                      A7
Não faz desse jeito não não sufoque essa paixão
                                             D
eu não quero ouvir você me dizer que tá numa boa
                                      A7
Não faz desse jeito não não sufoque essa paixão
                                             Dm
Eu não sou brinquedo que você usa e depois enjoa
Página 1 / 1

Letras e título
Acordes e artista

resetar configurações
OK