Amor Não Vai Faltar

Bruno e Marrone

Composição de: Marco / Mário
tom: A
(solo de introdução)
                         Bm   D                  A
E|--------------------------------------------------------------|
B|--------------------------------------------------------------|
G|---------2----------------------------------------------------|
D|----2-4-----4-2-----------------------7-9---11-11-11-9--7-----|
A|-4---------------4---2-2--4-5-----7-9-------------------------|
E|--------------------------------------------------------------|
                         Bm   D                    A
E|--------------------------------------------------------------|
B|--------------------------------------------------------------|
G|---------2----------------------------------------------------|
D|----2-4-----4-2------------------------2----------------------|
A|-4---------------4---2-2--4-5-------4------4-2----------------|
E|-------------------------------------------------5------------|

(primeira parte)
    A                                                 Bm    A  D
Me diz o que você quer que eu te faça, e eu te faço amor,
( D )                             E                  A    D E
Me diz o que você quer que eu te diga, e eu te digo sim,
A7                              A7/C#                 D           Dm
Me diz o que você quer que eu te dê, e eu te dou meu bem, tudo de mim,
    A            F#m   Bm            E7    A     E7
Eu faço o que você quiser só pra te ver feliz

(refrão)
              A                                      E
Eu não vou parar, eu vou mimar você até quando eu puder
                                 Bm          A         D  E7
Se isso é um defeito você pode até pedir pra eu parar, aaaa
                 A                                    E
Mais isso é tao bom, eu cuido de você, você cuida de mim
                                    D      A      Bm     E7
Se existe outro jeito eu prefiro assim, e quer saber, eu vou
     A     F#m   Bm       E7     A      F#m
Te amar assim, você quem vai cuidar de mim
     Bm   E7   A    F#m   Bm      E7     A
Eu cuido de você enfim, amor não vai faltar

(solo)
                         Bm   D                  A
E|--------------------------------------------------------------|
B|--------------------------------------------------------------|
G|---------2----------------------------------------------------|
D|----2-4-----4-2-----------------------7-9---11-11-11-9--7-----|
A|-4---------------4---2-2--4-5-----7-9-------------------------|
E|--------------------------------------------------------------|
                         Bm   D                    A
E|--------------------------------------------------------------|
B|--------------------------------------------------------------|
G|---------2----------------------------------------------------|
D|----2-4-----4-2------------------------2----------------------|
A|-4---------------4---2-2--4-5-------4------4-2----------------|
E|-------------------------------------------------5------------|

(segunda parte)
    A                                                 Bm
Me diz o que você quer que eu te faça, e eu te faço amor
D                                  E                 A    D   E
Me diz o que você quer que eu te diga, e eu te digo sim
A7                            A7/C#                   D          Dm
Me diz se você quer que eu advinhe e eu posso até tentar, descobrir
    A            F#m   Bm            E7     A    E7
Eu faço o que você quiser só pra te ver feliz

(refrão)
              A                                      E
Eu não vou parar, eu vou mimar você até quando eu puder
                                 Bm           A        D  E7
Se isso é um defeito você pode até pedir pra eu parar, aaaa
                 A                                    E
Mais isso é tao bom, eu cuido de você, você cuida de mim
                                   D            Bm   E7
Se existe outro jeito eu prefiro assim, e quer saber...

                   A                                 E
Eu não vou parar, eu vou mimar você até quando eu puder
                                 Bm          A        D  E7
Se isso é um defeito você pode até pedir pra eu parar, aaaa
                 A                                    E
Mais isso é tao bom, eu cuido de você, você cuida de mim
                                    D            Bm     E7
Se existe outro jeito eu prefiro assim,e quer saber, eu vou
     A     F#m  Bm       E7     A      F#m
Te amar,assim você quem vai cuidar de mim
     Bm   E7   A      F#m  Bm      E7     A      F#m
Eu cuido de você e enfim amor não vai faltar, assim
     Bm   E7   A      F#m  Bm      E7      A     F#m
Eu cuido de você e enfim amor nao vai faltar, assim
 Bm       E7    A
Amor não vai faltar

(solo final)
                         Bm   D                  A
E|-----------------------------------------------------|
B|-----------------------------------------------------|
G|---------2-------------------------------------------|
D|----2-4-----4-2----------------------2--4------------|
A|-4---------------4---2-2--4-5-----4--------4---0-----|
E|-----------------------------------------------------|
Página 1 / 1

Letras e título
Acordes e artista

resetar configurações
OK