Cifra Club

Aprenda

Amor Não Vai Faltar

Bruno e Marrone

Cifra: Versão 2 (violão e guitarra)
tom: C
(intro 2x)  Bm D A

               Bm    D               A                      Bm   D          A
E|--------------------|-----------------------|--------------------|---------|
B|--------------------|----------2--5-5p3-2-2-|--------------------|---------|
G|-------2------------|----2-4p2-2--6-6p4-2-2-|-------2------------|---------|
D|----2h4-4-2h4-------|-2/4-------------------|----2h4-4-2h4-------|---------|
A|-2/4---------2--4-5-|-----------------------|-2/4---------2--4-5-|-0-2b3-0-|
E|--------------------|-----------------------|--------------------|---------|

A                                                    Bm   A D
Me diz o que você quer que eu te faça, e eu te faço amor
                                  E                A    D E
Me diz o que você quer que eu te diga, e eu te digo sim
A7                             A7/C#*                    D           Dm
Me diz o que você quer que eu te dê, e eu te dou meu bem,tudo de mim
A             F#m     Bm             E7    A  E7
Eu faço o que você quiser só pra te ver feliz

             A                                       E/G#
Eu não vou parar, eu vou mimar você até quando eu puder
                                Bm          A/C#       D   E7
Se isso é um defeito você pode até pedir pra eu parar, aaaa
                 A                                   E/G#
Mais isso é tao bom, eu cuido de você,você cuida de mim
                                   D    A/C#    Bm     E7
Se existe outro jeito eu prefiro assim,e quer saber, eu vou
  A       F#m    Bm       E7      A      F#m
Te amar assim, você quem vai cuidar de mim
     Bm    E7   A    F#m    Bm      E7      A
Eu cuido de você enfim, amor não vai faltar

               Bm    D               A                      Bm   D          A
E|--------------------|-----------------------|--------------------|-------------|
B|--------------------|----------2--5-5p3-2-2-|--------------------|-------------|
G|-------2------------|----2-4p2-2--6-6p4-2-2-|-------2------------|-------------|
D|----2h4-4-2h4-------|-2/4-------------------|----2h4-4-2h4-------|------2------|
A|-2/4---------2--4-5-|-----------------------|-2/4---------2--4-5-|-0-2/4--2b--0|
E|--------------------|-----------------------|--------------------|-------------|

A                                  Bm
Me diz o que você quer que eu te faça, e eu te faço amor
D                                  E                 A    D E
Me diz o que você quer que eu te diga, e eu te digo sim
A7                                                   D           Dm
Me diz se você quer que eu advinhe e eu posso até tentar,descobrir
A             F#m      Bm             E7    A   E7
Eu faço o que voce quiser só pra te ver feliz

                  A                                E/G#
Eu não vou parar, eu vou mimar você até quando eu puder
                                Bm           A/C#      D  E7
Se isso é um defeito você pode até pedir pra eu parar, aaaa
                 A                                    E/G#
Mais isso é tao bom, eu cuido de você,você cuida de mim
                                   D      A/C#    Bm
Se existe outro jeito eu prefiro assim,e quer saber...

                   A                                E/G#
Eu não vou parar, eu vou mimar você até quando eu puder
                                Bm          A/C#       D  E7
Se isso é um defeito você pode até pedir pra eu parar, aaaa
                 A                                  E/G#
Mais isso e tão bom eu cuido de você,você cuida de mim
                                   D            Bm     E7
Se existe outro jeito eu prefiro assim,e quer saber, eu vou
 A       F#m    Bm       E7      A      F#m
Te amar,assim você quem vai cuidar de mim
    Bm    E7   A    F#m    Bm      E7      A     F#m
Eu cuido de você e enfim amor nao vai faltar, assim
     Bm    E7   A    F#m    Bm      E7      A     F#m
Eu cuido de você e enfim amor nao vai faltar, assim
 Bm       E7    A
Amor nao vai faltar

( Bm A D A)

(* acorde opcional)
Composição de Marco / Mário
Colaboração e revisão:
140.062 exibições
    • ½ Tom
    • A
    • Bb
    • B
    • C
    • Db
    • D
    • Eb
    • E
    • F
    • F#
    • G
    • Ab
  • Adicionar à lista

    0 comentários

    Ver todos os comentários
    00:00 / 00:00
    Outros vídeos desta música
    Repetir Qualidade Automático
    Outros vídeos desta música
    00:00 / 00:00
    Automático

    Cifra Club Pro

    Aproveite o Cifra Club com benefícios exclusivos e sem anúncios
    Cifra Club Pro
    Aproveite o Cifra Club com benefícios exclusivos e sem anúncios
    OK