Cifra Club

Ficar Por Ficar

Bruno e Marrone

Cifra: Principal (violão e guitarra)
tom: D
[Intro] Bm  F#m  G  D  F#
        Bm  F#m  Em  G  A

E|------------------------------------------|
B|-0-2-3-2-0-0------------------------------|
G|-------------2-4-4-4/6--------------------|
D|------------------------------------------|
A|------------------------------------------|
E|------------------------------------------|

E|------------------------------------------|
B|---------------------3p2---0-2------------|
G|-0-2-4-2-0-0-------------3----------------|
D|-------------0-2-2/4----------------------|
A|------------------------------------------|
E|------------------------------------------|

E|------------------------------------------|
B|-0-2-3-2-0-0------------------------------|
G|-------------2-4-4-6p4-2------------------|
D|------------------------------------------|
A|------------------------------------------|
E|------------------------------------------|

E|------------------------------------------|
B|--------------8/10--8p7-5-----------------|
G|-0-2-4-2-0-0--9/11------------------------|
D|------------------------------------------|
A|------------------------------------------|
E|------------------------------------------|

[Primeira Parte]

                   D
Eu não quero só ficar
                    A
Quero mais que aventura
               G                   A 
Dividir com você uma história de amor
                   D
Mais você não se importa
                A
Com a minha paixão
            Em      G       A  Bbº
Não leva a sério o meu coração

[Pré-Refrão]
 
   Bm                 F#m
Será que você não percebe
    G               D  F#
Que eu estou apaixonado
   Bm                     F#m
Será que não vê nos meus beijos
         G                A
Que eu quero você do meu lado

[Refrão]

   D                     A
Ficar por ficar eu não quero
    Em         G         D   A
Beijar por beijar eu tô fora
   D                 A
Menina vê se leva à sério
 Em        G       D  A
Vê se não pisa na bola

   D                     A
Ficar por ficar eu não quero
    Em         G         D   A
Beijar por beijar eu tô fora
   D                 A
Menina vê se leva à sério
 Em        G       D  F#
Vê se não pisa na bola

[Solo] Bm  F#m  G  D  F#
       Bm  F#m  Em  G  A

E|------------------------------------------|
B|-0-2-3-2-0-0------------------------------|
G|-------------2-4-4-4/6--------------------|
D|------------------------------------------|
A|------------------------------------------|
E|------------------------------------------|

E|------------------------------------------|
B|---------------------3p2---0-2------------|
G|-0-2-4-2-0-0-------------3----------------|
D|-------------0-2-2/4----------------------|
A|------------------------------------------|
E|------------------------------------------|

E|------------------------------------------|
B|-0-2-3-2-0-0------------------------------|
G|-------------2-4-4-6p4-2------------------|
D|------------------------------------------|
A|------------------------------------------|
E|------------------------------------------|

E|------------------------------------------|
B|-5-7-8-7----8-7--10--10-10-10-10----------|
G|---------7--7-7--9---9--9--9--9-----------|
D|------------------------------------------|
A|------------------------------------------|
E|------------------------------------------|

[Pré-Refrão]
 
   Bm                 F#m
Será que você não percebe
    G               D  F#
Que eu estou apaixonado
   Bm                     F#m
Será que não vê nos meus beijos
         G                A
Que eu quero você do meu lado

[Refrão]

   D                     A
Ficar por ficar eu não quero
    Em         G         D   A
Beijar por beijar eu tô fora
   D                 A
Menina vê se leva à sério
 Em        G       D  A
Vê se não pisa na bola

   D                     A
Ficar por ficar eu não quero
    Em         G         D   A
Beijar por beijar eu tô fora
   D                 A
Menina vê se leva à sério
 Em        G       D  A  D
Vê se não pisa na bola
00:00 / 00:00
Outros vídeos desta música
Repetir
Outros vídeos desta música
Composição de Everton Matos / Jairo Goes / Rivanil
522.955 exibições
    • ½ Tom
    • A
    • Bb
    • B
    • C
    • Db
    • D
    • Eb
    • E
    • F
    • F#
    • G
    • Ab
  • Adicionar à lista

    0 comentários

    Ver todos os comentários
    00:00 / 00:00

    Cifra Club Pro

    Aproveite o Cifra Club com benefícios exclusivos e sem anúncios
    Cifra Club Pro
    Aproveite o Cifra Club com benefícios exclusivos e sem anúncios
    OK