Cifra Club

Aprenda

Nova Flor (Os Homens Não Devem Chorar)

Bruno e Marrone

Cifra: Principal (violão e guitarra)
tom: E
[Solo] A  B  G#m  C#m
       A  B  F#m  B  E

E|------------------------------------------|
B|------------------------------------------|
G|------------------------------------------|
D|------------------------------------------|
A|-7-7-7-6-4------4-7-6-9--9--9---7-6-4-2---|
E|-------------5--------------------------4-|

E|---------------------------------|
B|---------------------------------|
G|---------------------------------|
D|---------------------------------|
A|-2-6-4-7--7-7-6-5-4-2-----2-4-2-6|
E|----------------------5-2--------|
 
E|---------------------------------------|
B|---------------------------------------|
G|---------------------------------------|
D|---------------------------------------|
A|-2-4-6-4-2---2-4-6-4-7---6---4--6------|
E|---------------------------------------|

E
Quando te perdi 
Não compreendi 
             F#m
Tua ingratidão
              B9
 Fiquei a chorar 
             F#m
Sem me conformar 
           E
Com a solidão 
          C#m                                   B
A nossa casinha na beira da linha tão triste ficou
                                            E   E7
Só o teu perfume fazendo ciúme foi o que restou 

A                           B
Seu procedimento me fez infeliz
                 G#m           C#m
Deixando em meu peito uma cicatriz 
                A                  B
Ao te ver de braços com um outro amor
               E               E7
Não sei como pude suportar a dor
A                                 B
Eu sei que um homem não deve chorar 
         G#m             C#m
Por uma mulher lhe abandonar 
       A                        B
Mas acreditando nos carinhos teus 
               F#m  B             E
Com o desencanto quem chorou fui eu     

E
Hoje faz um ano

Que o desengano 
         F#m
E a solidão 
            B9
Tiveram um fim
           F#m
Ao chegar pra mim
          E
Nova ilusão 

             C#m                             B
No jardim do amor uma nova flor veio florescer 
                                              E    E7
Trazendo bonança e nova esperança para o meu viver 

A                                 B
Dizem que há males que vem para bem
            G#m               C#m
Um amor se vai e outro logo vem
A                            F#m
Como não há mal que não tenha fim
             E                      E7
O que me fizestes foi um bem pra mim
A                                B
Não venho pedir não venho implorar
              G#m              C#m
Venho aqui somente para te contar
              A                  B
Que não interessa mais o seu amor
              F#m  B        E
Pois tenho comigo uma nova flor

[Solo] A  B  G#m  C#m  A  B  F#m  B  E  E7


E|------------------------------------------|
B|------------------------------------------|
G|------------------------------------------|
D|------------------------------------------|
A|-7-7-7-6-4------4-7-6-9--9--9---7-6-4-2---|
E|-------------5--------------------------4-|

E|---------------------------------|
B|---------------------------------|
G|---------------------------------|
D|---------------------------------|
A|-2-6-4-7--7-7-6-5-4-2-----2-4-2-6|
E|----------------------5-2--------|
 
E|----------------------------------------|
B|----------------------------------------|
G|----------------------------------------|
D|----------------------------------------|
A|-2-4-6-4-2---2-4-6-4-7---6---7-5-4------|
E|----------------------------------------|

A                                 B
Eu sei que um homem não deve chorar 
         G#m             C#m
Por uma mulher lhe abandonar 
       A                        B
Mas acreditando nos carinhos teus 
               F#m  B             E A E
Com o desencanto quem chorou fui eu
Composição de Mario Zan / Palmeira
Colaboração e revisão:
  • Victor Paciesny
1.117 exibições
    • ½ Tom
    • A
    • Bb
    • B
    • C
    • Db
    • D
    • Eb
    • E
    • F
    • F#
    • G
    • Ab
  • Adicionar à lista

    0 comentários

    Ver todos os comentários

    Conseguiu tocar?

    0 Tocaram 0 Ainda não

    Grave um vídeo tocando Nova Flor (Os Homens Não Devem Chorar) e nos envie!

    00:00 / 00:00
    Outros vídeos desta música
    Repetir Qualidade Automático
    Outros vídeos desta música
    00:00 / 00:00
    Automático

    Cifra Club Pro

    Aproveite o Cifra Club com benefícios exclusivos e sem anúncios
    Cifra Club Pro
    Aproveite o Cifra Club com benefícios exclusivos e sem anúncios
    OK